Oops, an error
Loading. Please wait.

Bloody Nails And Broken Hearts bass

version 1
version 1

Whole song

Interactive

667 views 1 this week
no commentswrite comment
1 2 3 4 5
x 5
add to favorites
×
Save as Personal and add changes to this tab that will be seen only by you. Learn more ›
×
You can save this tab as Personal to edit and correct it or add notes. All changes will be seen only by you. Learn more »
launch autoscroll
font size
0
reset
guitar tuner
edit
Autoscroll
slow
fast
+/-
esc
set tempo
stop
-----------------------------------------------------------------------------
                             Bloody Nails And Broken Hearts - Billy Talent
-----------------------------------------------------------------------------
Tabbed by: Andu Needle
E-mail: sulfur_in_my_lungs@yahoo.com

Intro:

G|------------------------------------------------------------------|
D|------------------------------------------------------------------|
A|------------------------------------------------------------------|
D|-1----------------------------------------------------------------|

G|------------------------------------------------------------------|
D|------------------------------------------------------------------|
A|------------------------------------------------------------------|
D|-1-401401-401401-401401-40140140----------------------------------|(x2)

Verse:

G|------------------------------------------------------------------|
D|------------------------------------------------------------------|
A|---111111-122-----------------------------------------------------|
D|-1------------4-00------------------------------------------------|(x9)

G|------------------------------------------------------------------|
D|------------------------------------------------------------------|
A|---111111-122-----------------------------------------------------|
D|-1------------1-4-------------------------------------------------|

The part -111111-122- is played toghether in the idea that after the last 1 from that 
bunch of ones you go straight into 122.

After that bridge part made of 1 and 4 you go straight into the pre chorus.

Pre chorus:

G|-------------------------------------------------------------------|
D|-------------------------------------------------------------------|
A|-------------------------------------------------------------------|
D|-66666666-44444444-88888888-11111111-66666666-44444444-------------|

G|-------------------------------------------------------------------|
D|-------------------------------------------------------------------|
A|-1111-2222-4444-5555-----------------------------------------------|
D|-------------------------------------------------------------------|(x2)

Chorus:

G|------------------------------------------------------------------|
D|------------------------------------------------------------------|
A|-66666666-22222222-44444444---------------------------------------|
D|----------------------------66666666------------------------------|(x2)

The little bridge + Verse 2:

G|-----------------------------------------------------------------|
D|-----------------------------------------------------------------|
A|---111111-122----------------------------------------------------|
D|-1------------4-00-----------------------------------------------|(x5)

G|-----------------------------------------------------------------|
D|-----------------------------------------------------------------|
A|---111111-122----------------------------------------------------|
D|-1------------1-4------------------------------------------------|

Pre chorus 2 is like the other but the last part is played 3 times, not twice!

Chorus 2:

G|-----------------------------------------------------------------|
D|-----------------------------------------------------------------|
A|-66666666-22222222-44444444--------------------------------------|
D|----------------------------66666666-----------------------------|(x3)

G|-----------------------------------------------------------------|
D|-----------------------------------------------------------------|
A|-----------1111-3355---------------------------------------------|
D|-4444-6677-------------------------------------------------------|

Bridge:

Maine riff x5
After the main riff you go straight into this:

G|-----------------------------------------------------------------|
D|-----------------------------------------------------------------|
A|-22222222-2222-44444444-55555555---------------------------------|
D|---------------------------------1-------------------------------|

The last chorus is like the second one!

Ending:

G|-----------------------------------------------------------------|
D|-----------------------------------------------------------------|
A|-----------------------------------------------------------------|
D|-1-401401-401401-401401------------------------------------------|
Suggest correction
Creating personal tab
Creating personal tab
You can edit any tab online and save it as your Personal.

You can edit, replace or remove any tab part or add personal notes – all changes will be seen only by you.

Personal tabs can be accessed anytime from any device, even offline.
Learn more »
comments
print report bad tab
guest
You may want to rate the tab now too:
select rating
Wanna post a correction for this tab? Suggest correction