Oops, an error
Loading. Please wait.

Bloody Nails Broken Hearts Tab

101 views 3 this week
no commentswrite comment
1 2 3 4 5
please rate
add to favorites
launch autoscroll
font size
0
reset
how to read this tab
guitar tuner
Autoscroll
slow
fast
+/-
esc
set tempo
stop
Help us to improve Ultimate-Guitar.com Take our survey!
×
Author
Difficulty
Tuning
Heatran 90
intermediate
D A D G B E
Intro

e|---|------------------------------------------------------|
B|---|------------------------------------------------------|
G|---|------------------------------------------------------| Guitar 1 : (X3)
D|---|--4-----4------4-----4------4-----4-----4-----4-------| Guitar 2 : (X2)
A|-1-|----0-1---0-1----0-1---0-1----0-1---0-1---0-1---0-1-4-|
D|-1-|----0-1---0-1----0-1---0-1----0-1---0-1---0-1---0-1-4-|


Verse

e|------------------------------------------------|
B|-4----------------------------------------------|
G|-3------(Let ring as the bass plays)------------| (X2)
D|-1----------------------------------------------|
A|-1----------------------------------------------|
D|-1----------------------------------------------|

e|---------|---------------------------------------------|---------------|
B|---------|---------------------------------------------|---------------|
G|---------|---------------------------------------------|---------------|
D|-1--4--6-|-6------4------8------10------12------1------|-6------4------|
A|-1--4--6-|-6-(X8)-4-(X8)-8-(X2)-10-(X2)-12-(X2)-1-(X8)-|-6-(X8)-4-(X8)-|
D|-1--4--6-|-6------4------8------10------12------1------|-6------4------|
             PM..........................................................

e|---------------------------------|
B|---------------------------------|
G|-3-3-3-3-4-4-4-4-6-6-6-6-7-7-7-7-|
D|-3-3-3-3-4-4-4-4-6-6-6-6-7-7-7-7-| (X2) Guitar 1
A|-1-1-1-1-2-2-2-2-4-4-4-4-5-5-5-5-|
D|---------------------------------|
 |
 |
e|-----------------------------------------|
B|-----------------------------------------|
G|-----------------------------------------|
D|-8-8-8-8-9-9-9-9-11-11-11-11-12-12-12-12-| (X2) Guitar 2
A|-----------------------------------------|
D|-----------------------------------------|


Chorus

e|-----------------------------|
B|-8-------------6-------------|
G|-9------1------6-------------|
D|-9-(X8)-1-(X8)-6-(X8)-6-(X8)-| (X2)
A|-7------2------4------6------|
D|----------------------6------|

e|-----------------------------------------|
B|-4---------------------------------------|
G|-3---------------------------------------|
D|-1---------------------------------4-4-0-| (X2) Guitar 1
A|-1----------(Let Ring)-------------4-4-0-|
D|-1---------------------------------4-4-0-|
 |
 |
e|-----------------------------------------|
B|-----------------------------------------|
G|-----------------------------------------|
D|-8-8-8-8-9-9-9-9-11-11-11-11-12-12-12-12-| (X2) Guitar 2
A|-----------------------------------------|
D|-----------------------------------------|


Verse

e|------------------------------------------------|
B|-4----------------------------------------------|
G|-3------(Let ring as the bass plays)------------|
D|-1----------------------------------------------|
A|-1----------------------------------------------|
D|-1----------------------------------------------|

e|---------|---------------------------------------------|---------------|
B|---------|---------------------------------------------|---------------|
G|---------|---------------------------------------------|---------------|
D|-1--4--6-|-6------4------8------10------12------1------|-6------4------|
A|-1--4--6-|-6-(X8)-4-(X8)-8-(X2)-10-(X2)-12-(X2)-1-(X8)-|-6-(X8)-4-(X8)-|
D|-1--4--6-|-6------4------8------10------12------1------|-6------4------|
             PM..........................................................

e|---------------------------------|
B|---------------------------------|
G|-3-3-3-3-4-4-4-4-6-6-6-6-7-7-7-7-|
D|-3-3-3-3-4-4-4-4-6-6-6-6-7-7-7-7-| (X3) Guitar 1
A|-1-1-1-1-2-2-2-2-4-4-4-4-5-5-5-5-|
D|---------------------------------|
 |
 |
e|-----------------------------------------|
B|-----------------------------------------|
G|-----------------------------------------|
D|-8-8-8-8-9-9-9-9-11-11-11-11-12-12-12-12-| (X3) Guitar 2
A|-----------------------------------------|
D|-----------------------------------------|


Chorus

e|-----------------------------|
B|-8-------------6-------------|
G|-9------1------6-------------|
D|-9-(X8)-1-(X8)-6-(X8)-6-(X8)-| (X3)
A|-7------2------4------6------|
D|----------------------6------|

e|-------------------------------|
B|-------------------------------|
G|-------------------------------|
D|-4------8------10------12------|
A|-4-(X8)-8-(X4)-10-(X2)-12-(X2)-|
D|-4------8------10------12------|

e|---|------------------------------------------------------|
B|---|------------------------------------------------------|
G|---|------------------------------------------------------| (X5)
D|---|--4-----4------4-----4------4-----4-----4-----4-------|
A|-1-|----0-1---0-1----0-1---0-1----0-1---0-1---0-1---0-1-4-|
D|-1-|----0-1---0-1----0-1---0-1----0-1---0-1---0-1---0-1-4-|

E|-----------------------|
B|-----------------------|
G|-4-------6------7------|
D|-4-(X16)-6-(X8)-7-(X8)-|
A|-2-------4------5------|
E|-----------------------|

e|------------------|
B|------------------|
G|------------------|
D|----4-----4-----4-|
A|-1----0-1---0-1---|
D|-1----0-1---0-1---|



Chorus

e|-----------------------------|
B|-8-------------6-------------|
G|-9------1------6-------------|
D|-9-(X8)-1-(X8)-6-(X8)-6-(X8)-| (X3)
A|-7------2------4------6------|
D|----------------------6------|

e|-------------------------------|
B|-------------------------------|
G|-------------------------------|
D|-4------8------10------12------|
A|-4-(X8)-8-(X4)-10-(X2)-12-(X2)-|
D|-4------8------10------12------|


Outro

e|---|-----------------------------------------|
B|---|-----------------------------------------|
G|---|-----------------------------------------|
D|---|--4-----4------4-----4------4-----4------|
A|-1-|----0-1---0-1----0-1---0-1----0-1---0-1--|
D|-1-|----0-1---0-1----0-1---0-1----0-1---0-1--|
Suggest correction
What's this?
You can suggest a correction to this tab. Community and Mods will review your correction and vote to approve or reject it.
comments
We did not receive enough feedback on this tab! Please rate:
print report bad tab
1 2 3 4 5
guest
You may want to rate the tab now too:
select rating
Please do not post tabs as comments. Select "correction" instead!