Oops, an error
Loading. Please wait.
We have an official Burn The Evidence tab made by UG professional guitarists. Check out the tab »
×
3,166 views 1 this week
no commentswrite comment
1 2 3 4 5
x 5
add to favorites
launch autoscroll
font size
0
reset
guitar tuner
×
Best way to learn
"Burn The Evidence"
Autoscroll
slow
fast
+/-
esc
set tempo
stop
Song: Burn The Evidence
Artist: Billy Talent
Album: Billy Talent II

This song is not very hard to play at all. The only odd thing is the rhythm. It might be
to learn the timing by ear, even though the notes are arranged according to the timing
the song. Also, to print this tab, use Courier New, size 9, and each line of tab will be 
only one page. Enjoy!

VERSE 1   ( :  )

G|----------------|----------------|----------------|----------------|
D|----------------|----------------|----------------|----------------|
A|--------5-------|--------5-------|--------5-------|3---------------|
D|5---------------|5---------------|5---------------|--------5-------|

G|----------------|----------------|----------------|----------------|
D|----------------|----------------|----------------|----------------|
A|--------5--5----|--------5--5----|--------5--5----|----------------|
D|5-----5---------|5-----5---------|5-----5---------|2---------------|

PRE-CHORUS 1   ( :  )

G|----------------|----------------|----------------|----------------|
D|----------------|----------------|----------------|----------------|
A|----------------|44004404-5-55---|----------------|44004404-5-55---|
D|-0-00----2-22---|----------------|-0-00----2-22---|----------------|

G|----------------|----------------|
D|----------------|----------------|
A|----------------|3-------1-------|
D|-0-00----2-22---|----------------|


VERSE 2   ( :  )

G|----------------|----------------|----------------|----------------|
D|----------------|----------------|----------------|----------------|
A|5-------0-------|--------0-------|--------0-------|--------0-------|
D|----------------|3-------------32|0---------------|3---------------|

G|----------------|----------------|----------------|----------------|
D|----------------|----------------|----------------|----------------|
A|--------0-------|--------0-------|--------0-------|--------0-------|
D|0---------------|3---------------|0---------------|3-------------87|

G|----------------|----------------|----------------|----------------|
D|----------------|----------------|----------------|----------------|
A|--------5--5----|--------5--5----|--------5--5----|3---------------|
D|5-----5---------|5-----5---------|5-----5---------|------0-5--5--87|

G|----------------|----------------|----------------|----------------|
D|----------------|----------------|----------------|----------------|
A|--------5--5----|--------5--5----|--------5--5----|----------------|
D|5-----5---------|5-----5---------|5-----5---------|2---------------|


PRE-CHORUS 2   ( :  )

G|----------------|----------------|----------------|----------------|
D|----------------|----------------|----------------|----------------|
A|----------------|44004404-5-55---|----------------|44004404-5-55---|
D|-0-00----2-22---|----------------|-0-00----2-22---|----------------|

G|----------------|----------------|
D|----------------|----------------|
A|----------------|44004404-5-55555|
D|-0-00----2-22---|----------------|


CHORUS 1   ( :  )

G|----------------|----------------|----------------|----------------|
D|----------------|----------------|----------------|----------------|
A|--------------0-|--------------0-|--------------0-|3-3-3-3-1-1-1-1-|
D|-5-555550-2-3---|-5-555550-2-3---|-5-555550-2-3---|----------------|  x2


INTERLUDE   ( :  )

G|----------------|----------------|----------------|----------------|
D|----------------|----------------|----------------|----------------|
A|55-55555-555-025|33-33333-333--03|1111111111111111|0000000000000000|
D|------------5---|------------35--|----------------|----------------|  x2

G|----------------|----------------|----------------|----------------|
D|----------------|22222222--------|----------------|----------------|
A|5555555555555555|--------33333333|1111111111111111|0000000000000000|
D|----------------|----------------|----------------|----------------|


PRE-CHORUS 3   ( :  )

G|----------------|----------------|----------------|----------------|
D|----------------|----------------|----------------|----------------|
A|----------------|----------------|----------------|44004404-5-55555|
D|----------------|----------------|-0-00----2-22---|----------------|


CHORUS 2   ( :  )

G|----------------|----------------|----------------|----------------|
D|----------------|----------------|----------------|----------------|
A|--------------0-|--------------0-|--------------0-|3-3-3-3-1-1-1-1-|
D|-5-555550-2-3---|-5-555550-2-3---|-5-555550-2-3---|----------------|  x3

G|----------------|----------------|----------------|----------------|
D|----------------|----------------|----------------|----------------|
A|--------------0-|--------------0-|--------------0-|3-------1-------|
D|-5-555550-2-3---|-5-555550-2-3---|-5-555550-2-3---|----------------|

G|----------------|
D|----------------|
A|----------------|
D|0---------------|    - :


Symbol Legend:

x2  = Play this section twice

That’s it. Any questions, comments, suggestions or corrections would be appreciated.
Suggest correction
comments
print report bad tab
guest
You may want to rate the tab now too:
select rating
Wanna post a correction for this tab? Suggest correction