Oops, an error
Loading. Please wait.

Burn The Evidence Tab

version 2
version 2

Whole song

Interactive

1,815 views 1 this week
no commentswrite comment
1 2 3 4 5
please rate
add to favorites
launch autoscroll
font size
0
reset
how to read this tab
guitar tuner
Tab Pro tools
  • play this tab
  • loop segment
  • change instrument
  • show fretboard
  • metronome
×
Best way to learn
"Burn The Evidence"
Autoscroll
slow
fast
+/-
esc
set tempo
stop
Contributor
Tuning
D A D G B E
-------------------------------------------------------------------------------
                             BURN THE EVIDENCE - Billy Talent
-------------------------------------------------------------------------------

Tuning: Drop D (DADGBe)

Verse:
e|-----------------------------|-------------------------------|
B|---------6--/10--------10----|----------10-------------10----|
G|------0-------------0--------|-------0--------------0--------|
D|----7------------10----------|----10-------------10----------| x2
A|-5-----------0---------------|-8--------------0--------------|
D|-----------------------------|-------------------------------|

e|-----------------------------|-------------------------------|
B|----------10-----------------|----------10-------------------|
G|-------0-----------0---------|-------------------0-----------|
D|-----8-----------0-------0---|---8---------8---0-------0-----|
A|-10------------8------8----8h|10---10--------8-----8-------8h|
D|-----------------------------|-------------------------------|

e|-----------------------------|-------------------------3-----|
B|----------10-----------------|---------5---------------------|
G|-------0-----------0---------|------0--------------3---------|
D|-----8-----------0--------0--|----5--------------0-------0---|
A|-10------------8------8------|-3---------3-------------------|
D|-----------------------------|----------------5--------------|

e|-----------------------------|-------------------------------|
B|----------10-----------------|----------10-------------------|
G|-------0-----------0---------|-------------------0-----------|
D|-----8-------8---0-------0---|---8---------8---0-------0-----|
A|/10------------8------8----8h|10---10--------8-----8-------8h|
D|-----------------------------|-------------------------------|

e|-----------------------------|-0-----------------------------|
B|----------10-----------------|-8-----------------------------|
G|-------0-----------0---------|-0-----------------------------|
D|-----8-------8---0--------0--|-8-----------------------------|
A|-10------------8------8------|-7-----------------------------|
D|-----------------------------|-------------------------------|

Prechorus:
e|----5--5-5---------0--0-0----|--------------------5---5-5----|
B|----6--6-6---------8--8-8----|-5-5-5-5-5-5-5-5----6---6-6----|
G|----7--7-7---------0--0-0----|-x-x-x-x-x-x-x-x----7---7-7----| x2
D|----7--7-7---------8--8-8----|-5-5-5-5-5-5-5-5----7---7-7----|
A|----5--5-5---------7--7-7----|-4-4-0-0-4-4-0-4----5---5-5----|
D|----0--0-0-------------------|--------------------0---0-0----|

e|----5--5-5---------0--0-0----|-0-------------0---------------|
B|----6--6-6---------8--8-8----|-5-------------3---------------|
G|----7--7-7---------0--0-0----|-0-------------0---------------| 
D|----7--7-7---------8--8-8----|-5-------------3---------------|
A|----5--5-5---------7--7-7----|-3-------------1---------------|
D|----0--0-0-------------------|-------------------------------|

Interlude (same as first verse riff):
e|-----------------------------|-------------------------------|
B|---------6--/10--------10----|----------10-------------10----|
G|------0-------------0--------|-------0--------------0--------|
D|----7------------10----------|----10-------------10----------|
A|-5-----------0---------------|-8--------------0--------------|
D|-----------------------------|-------------------------------|

Verse

Prechorus:
e|----5--5-5---------0--0-0----|--------------------5---5-5----|
B|----6--6-6---------8--8-8----|-5-5-5-5-5-5-5-5----6---6-6----|
G|----7--7-7---------0--0-0----|-x-x-x-x-x-x-x-x----7---7-7----| x2
D|----7--7-7---------8--8-8----|-5-5-5-5-5-5-5-5----7---7-7----|
A|----5--5-5---------7--7-7----|-4-4-0-0-4-4-0-4----5---5-5----|
D|----0--0-0-------------------|--------------------0---0-0----|

e|----5--5-5---------0--0-0----|------------------5--5-5-5-5-5-|
B|----6--6-6---------8--8-8----|-5-5-5-5-5-5-5-5--6--6-6-6-6-6-|
G|----7--7-7---------0--0-0----|-x-x-x-x-x-x-x-x--7--7-7-7-7-7-|
D|----7--7-7---------8--8-8----|-5-5-5-5-5-5-5-5--7--7-7-7-7-7-|
A|----5--5-5---------7--7-7----|-4-4-0-0-4-4-0-4--5--5-5-5-5-5-|
D|----0--0-0-------------------|------------------0--0-0-0-0-0-|
 |                                                             |
e|-----------------------------|-------------------------------|
B|-----------------------------|-------------------------------|
G|-----------------------------|-------------------------------|
D|-----------------------------|-------------------------------|
A|-----------------------------|-------------------------------|
D|-----------------------------|-------------------7\\\0-0-0-0-|

Chorus:                      x3|
e|---0--0-0-0-0-0-5--5--5--5---|-0--0--0--0--0--0--0--0--|
B|o--8--8-8-8-8-8-6--6--6--6--o|-5--5--5--5--3--3--3--3--|
G|---7--7-7-7-7-7-7--7--7--7---|-0--0--0--0--0--0--0--0--|
D|---5--5-5-5-5-5-7--7--7--7---|-5--5--5--5--3--3--3--3--|
A|o--5--5-5-5-5-5-5--5--5--5--o|-3--3--3--3--1--1--1--1--|
D|---5--5-5-5-5-5--------------|-------------------------|
 |                             |                         | x2
e|-----------------------------|-------------------------|
B|o---------------------------o|-------------------------|
G|-----------------------------|-------------------------|
D|---8--8-8-8-5-5-7--3--7--3---|-10-10-10-10-8--8--8--8--|
A|o--5--5-5-5-5-5-0--0--0--0--o|-10-10-10-10-8--8--8--8--|
D|---5--5-5-5-5-5-0--0--0--0---|-10-10-10-10-8--8--8--8--|

Bridge:
e|-0-0--0-0-0-0-0--0-0-0-0-0-0-0-|-0-0--0-0-0-0-0--0-0-0-0-0-0-0-|
B|-6-6--6-6-6-6-6--6-6-6-6-6-6-6-|-8-8--8-8-8-8-8--8-8-8-8-8-8-8-|
G|-0-0--0-0-0-0-0--0-0-0-0-0-0-0-|-0-0--0-0-0-0-0--0-0-0-0-0-0-0-|
D|-7-7--7-7-7-7-7--7-7-7-7-7-7-7-|-8-8--8-8-8-8-8--8-8-8-8-8-8-8-|
A|-5-5--5-5-5-5-5--5-5-5-5-5-5-5-|-7-7--7-7-7-7-7--7-7-7-7-7-7-7-|
D|-------------------------------|-------------------------------|
 |                                                               |
e|-------------------------------|-------------------------------|
B|-------------------------------|-------------------------------|
G|-------------------------------|-------------------------------|
D|-------------------------------|-2-2--2-2-2-2-2--2-2-2---------|
A|-5-5--5-5-5-5-5--5-5-5-5-5-5-5-|-x-x--x-x-x-x-x--x-x-x---------|\
D|-0-0--0-0-0-0-0--0-0-0-0-0-0-0-|-2-2--2-2-2-2-2--2-2-2/6-2-6-2-| \
                                                                   x3
e|-0-----------------------------|-0-----------------------------| /
B|-13----------------------------|-13------13-13-13b-13b-13b-13b-|/
G|-14--(sixteen)-----------------|-0--(ten)----------------------|
D|-x-----------------------------|-14-----------(1/4-----1/2---)-|
A|-13----------------------------|-12----------------------------|
D|-------------------------------|-------------------------------|
 |                                                               |
e|-------------------------------|-------------------------------|
B|-------------------------------|-------------------------------|
G|-------------------------------|--------------(1/4-----1/2---)-|
D|-10--(sixteen)-----------------|-10-(ten)----------------------|
A|-8-----------------------------|-7-------12-12-12b-12b-12b-12b-|
D|-8-----------------------------|-7-----------------------------|

Prechorus

Chorus

End Chorus with:
e|-----------------------------|-------------------------------|
B|-----------------------------|-------------------------------|
G|-----------------------------|-------------------------------|
D|-10--------------8-----------|-------------------------------|
A|-10--------------8-----------|-5-----------------------------|
D|-10--------------8-----------|-0-----------------------------|

                                                             x2|
e|-----------------------------|-------------------------------|-0-----------|
B|---------6--/10--------10----|----------10-------------10----|-3-----------|
G|------0-------------0--------|-------0--------------0--------|-0-----------|
D|----7------------10----------|----10-------------10----------|-7-----------|
A|-5-----------0---------------|-8--------------0--------------|-5-----------|
D|-----------------------------|-------------------------------|-------------|


| /  slide up
| \  slide down
| h  hammer-on
| p  pull-off
| ~  vibrato
| +  harmonic
| x  Mute note
===============================================================================
comments
We did not receive enough feedback on this tab! Please rate:
print report bad tab
1 2 3 4 5
I want to post or [tab]
guest
You may want to rate the tab now too:
select rating
Please do not post tabs as comments. Select "correction" instead!