Oops, an error
Loading. Please wait.

Cold Turkey Bass Tab

version 1
version 1

Whole song

Interactive

1,145 views 3 this week
no commentswrite comment
1 2 3 4 5
2 more votes to show rating
add to favorites
launch autoscroll
font size
0
reset
guitar tuner
Autoscroll
slow
fast
+/-
esc
set tempo
stop
Help us to improve Ultimate-Guitar.com Take our survey!
×
Author
Difficulty
Tuning
intermediate
D A D G B E
Intro
G|-------------------------------------------------|
D|---------5-----------5-----------5-----------5---|
A|-------------------------------------------------|
D|-5-3-3-5-----5-3-3-5-----5-3-3-5-----5-3-3-5-----|

Verse: x8
G|-----------------------------|
D|-----------5-3---------------|
A|---------------3-------------|
D|-5-5-5-5-5-------3--1--0-1---|

Chorus:
G|-------------------------------|
D|-------------------------------|
A|1111111111111111-333333333-----|
D|---------------------------3~--|

Intro

Verse x8

Chorus

Intro

Bridge x4 (This can be hard to play, so listen closely for the timing)
G|-----------------------|
D|-------5---------7-----|
A|-----------------------|
D|-0-3101----0-3101------|

Chorus

Intro

Verse x8

Chorus

Bridge x4

Chorus

Chorus: (Different ending note)
G|-------------------------------|
D|---------------------------3~--|
A|1111111111111111-333333333-----|
D|-------------------------------|

End:
G|-----------|
D|-----------|
A|-----------|
D|--5-3-3-5--|

This song wouldn't be too hard if it wasn't played so fast. So because of that, be very 
weary of the timing, and listen to it closely, especially with the bridge.
Suggest correction
Give kudos to tab author, rate the tab!
1 2 3 4 5
comments
print report bad tab
guest
You may want to rate the tab now too:
select rating
Wanna post a correction for this tab? Suggest correction