Oops, an error
Loading. Please wait.

Covered In Cowardice Bass Tab

version 1
version 1

Whole song

Interactive

3,080 views 1 this week
1 commentread comment
1 2 3 4 5
accurate
x 3
add to favorites
launch autoscroll
font size
0
reset
guitar tuner
Tab Pro tools
  • play this tab
  • loop segment
  • change instrument
  • show fretboard
  • metronome
×
Best way to learn
"Covered In Cowardice"
Autoscroll
slow
fast
+/-
esc
set tempo
stop
Contributor
Difficulty
Tuning
novice
D A D G B E
Album: Billy Talent II
Tabbed by Tony D(Temp144)
Tuning: Drop D

This is the 5th Song leaked from Billy Talent II. 
This song is more abstract than what Billy Talent usually does
so it's pretty good. This is just what I made up after a few listens.
It sounds right, but i might have to tighten up on some parts.
Try and Rate It! Long Live Taborama!

Intro:1x                                                   Play After 2x
G|------------------------------------------------------------------|-----|
D|--------------------------------------------------1-1-1-1-1-1-1-1-|-----|
A|-----------------5-5-5-5-5-5-5-5--111-11-11-11-1-1----------------|-333-|
D|-555-55-55-55-5-5-------------------------------------------------|-----|

Verse:Play Intro 2x
Pre Chorus:2x                         Play After 2x
G|------------------------------------|---------|
D|------------------------------------|---------|
A|-33333333-66666666------------------|---------|
D|------------------55555555-33333333-|-3(ring)-|

Chorus:2x
G|-----------------------------------------------|
D|-----------------------------------------------|
A|-----1(bend)-----1---------1(bend)-------------|
D|-5555--------5-3---0--5555-------0(ring)-00----|

                   Play After 1x       Play After 2x                      
G|-----------------|-------------------|------------------|
D|-----------------|-------------------|------------------|
A|---------33333333|-----1(bend)-------|------------------|
D|-11111111--------|5555--------3(ring)|-5555555333333333-|

Chorus cont: 
|------------------------------|
|------------------------------|
|---------3333333----1(bend)---|
|-1111111-------5555--0(ring)--|

Post Chorus: Play Intro 1x
Verse:2x
Pre-Chorus:2x
Chorus:2x

Bridge:2x
G|-------------------------00003333-------------------------------------|
D|-------------000011113333------------0h2(ring)------------------------|
A|-----00001111--------------------3333-------------0h1(ring)-----------|
D|-5555----------------------------------------5555--------0(ring)-1111-|

Post Bridge:1x
G|----------------------------------|
D|----------------------------------|
A|------------------1---------------|
D|--5-------0(ring)---------1(ring)-|

Chorus:2x
Outro: Pt1:2x
G|-----------------------------------|
D|-----------------------------------|
A|---------33333333------------------|
D|-11111111--------55555555333333333-|

Pt2:2x
G|----------------------|---------|
D|----------------------|---------|
A|-----1(bend)-----1----|---------|
D|-5555--------5-3---0--|-5(ring)-|

END



comments
We did not receive enough feedback on this tab! Please rate:
print report bad tab
1 2 3 4 5
1 comment total.
0 reply
Kekumba wrote on February 19 2007, 11:34 pm

For an alternate chorus ...

G|---------------3-------------------------------|
D|-------------3---------------------------------|
A|-----------------------------------------------|
D|-5555-7~--5------0----5555-7---0~--------------|

You don't have to hold that first 7 for very long, but umm yeah ..

I want to post or [tab]
guest
You may want to rate the tab now too:
select rating
Please do not post tabs as comments. Select "correction" instead!