Oops, an error
Loading. Please wait.

Covered In Cowardice Tab

version 1
version 1

Whole song

Interactive

11,572 views 15 this week
9 commentsread comments
1 2 3 4 5
worth learning
x 6
add to favorites
launch autoscroll
font size
0
reset
how to read this tab
guitar tuner
Autoscroll
slow
fast
+/-
esc
set tempo
stop
Help us to improve Ultimate-Guitar.com Take our survey!
×
Difficulty
Tuning
novice
D A D G B E
------------------------------------------------------------------------------------------------
                    BILLY TALENT-COVERED IN COWARDICE
------------------------------------------------------------------------------------------------

This is a song that got leaked over the internet. I doubt it's that good, but I was lazy 
making this tab. If you want the song, email me.

Email: x-parasite@e-dimensionz.com
Name: Brendan

Intro 1
Clean
e|------------------------------------------------------|
B|------------------------------------7brbr-------------|
G|------------------------------------8brbr-------------|
D|--2-----3-----5-----7-----8---10----9brbr-------------|
A|----0-0---0-0---0-0---0-0---0----0--------------------|
D|------------------------------------------------------|

e|------------------------------------------------------|
B|---------------------------------------10brbr---------|
G|---------------------------------------11brbr---------|
D|--7-----8-----10-----12-----13---15----12brbr---------|
A|----0-0---0-0----0-0----0-0----0----0-----------------|
D|------------------------------------------------------|


Intro 2
Distorted
e|------------------------------------------------------|
B|------------------------------------7-7-7-------------|
G|------------------------------------8-8-8-------------|
D|--2-----3-----5-----7-----8---10----9-9-9-------------|
A|----0-0---0-0---0-0---0-0---0----0--------------------|
D|----0-0---0-0---0-0---0-0---0----0--------------------|

e|------------------------------------------------------|
B|---------------------------------------10-10-10-------|
G|---------------------------------------11-11-11-------|
D|--7-----8-----10-----12-----13---15----12-12-12-------|
A|----0-0---0-0----0-0----0-0----0----0-----------------|
D|----0-0---0-0----0-0----0-0----0----0-----------------|


Verse part 1
First chord-Light distortion, after that-Clean
e|----------------1--------1---------3------------------|
B|----------------3--------3---------4------------------|
G|----------------2--------3---------5------------------|
D|-5----------------------------------------------------|
A|-5----------------------------------------------------|
D|-5----------------------------------------------------|
Twisted tongues.../when your insecure....


Verse part 2
Clean
e|------------------------------------------------------|
B|------------------------------------------------------|
G|-7-7-7-7-7h8p7-10br----7-7-7-7-7h8p7-10br-------------|
D|------------------------------------------------------|
A|------------------------------------------------------|
D|------------------------------------------------------|


Pre-chorus
Distorted x2..........................x1
e|---------------------------------|--------------------|
B|---------------------------------|--------------------|
G|-5-5-5-5-8-8-8-8-----------------|--------------------|
D|-5-5-5-5-8-8-8-8-5-5-5-5-3-3-3-3-|--3-----------------|
A|-3-3-3-3-6-6-6-6-5-5-5-5-3-3-3-3-|--3-(Let note ring)-|
D|-----------------5-5-5-5-3-3-3-3-|--3-----------------|
Cowards, they hide behind their words...underneath the....


Chorus
Distorted
e|------------------------------------------------------|
B|------------------------------------------------------|
G|--------------------3---------------------------------|
D|---------------5-3----0-------------------------------|
A|---------1br--------------------1br-0(hold-note)------|
D|-5-5-5-5----------------5-5-5-5-----0(hold note)------|
Covered in cowardice!.........

e|------------------------------------------------------|
B|------------------------------------------------------|
G|---------5-5-5-5--------------------------------------|
D|-1-1-1-1-5-5-5-5-5-5-5-----3--------------------------|
A|-1-1-1-1-3-3-3-3-5-5-5-1br-3-(Hold-note)--------------|
D|-1-1-1-1---------5-5-5-----3--------------------------|
Beware the voice without a face...

e|------------------------------------------------------|
B|------------------------------------------------------|
G|--------------------3---------------------------------|
D|---------------5-3----0-------------------------------|
A|---------1br--------------------1br-0(hold-note)------|
D|-5-5-5-5----------------5-5-5-5-----0(hold note)------|
Covered in cowardice!.........

e|------------------------------------------------------|
B|------------------------------------------------------|
G|---------5-5-5-5--------------------------------------|
D|-1-1-1-1-5-5-5-5-5-5-5-5-3-3-3-3----------------------|
A|-1-1-1-1-3-3-3-3-5-5-5-5-3-3-3-3----------------------|
D|-1-1-1-1---------5-5-5-5-3-3-3-3----------------------|
Cowards, the hide behind their words....

e|------------------------------------------------------|
B|------------------------------------------------------|
G|---------5-5-5-5--------------------------------------|
D|-1-1-1-1-5-5-5-5-5-5-5-----3--------------------------|
A|-1-1-1-1-3-3-3-3-5-5-5-1br-3-(Hold-note)--------------|
D|-1-1-1-1---------5-5-5-----3--------------------------|
Beware the voice without a face...


Riff 1
Clean
e|------------------------------------------------------|
B|------------------------------------------------------|
G|-7-7-7-7-7h8p7-10br-10br-10br-10br-7-7-7-7-7h8p7-10br-|
D|------------------------------------------------------|
A|------------------------------------------------------|
D|------------------------------------------------------|


Bridge
Light Distortion
e|------------------------------------------------------|
B|-11-11-11-11-13-13-13-13-15-15-15-15-15-15-15-15------|
G|------------------------------------------------------|
D|------------------------------------------------------|
A|------------------------------------------------------|
D|------------------------------------------------------|

e|------------------------------------------------------|
B|------------------------------------------------------|
G|-12-12-12-12-14-14-14-14-15-15-15-15-15-15-15-15------|
D|------------------------------------------------------|
A|------------------------------------------------------|
D|------------------------------------------------------|

e|------------------------------------------------------|
B|-------------------------------------------5-3-1-3----|
G|----------------------------------------------------3-|
D|---------1br------------------------------------------|
A|-3-3-3-3-----------1br-0------------------------------|
D|------------5-5-5-5----0-(Let-chord-ring)-------------|
YEAH!!!!!....

Outro Part 1
Distorted
e|------------------------------------------------------|
B|------------------------------------------------------|
G|---------5-5-5-5--------------------------------------|
D|-1-1-1-1-5-5-5-5-5-5-5-5-3-3-3-3----------------------|
A|-1-1-1-1-3-3-3-3-5-5-5-5-3-3-3-3----------------------|
D|-1-1-1-1---------5-5-5-5-3-3-3-3----------------------|
A voice without a face.....


Outro part 2
e|------------------------------------------------------|
B|------------------------------------------------------|
G|--------------------3---------------------------------|
D|---------------5-3----0-------------------------------|
A|---------1br--------------------1br-0(hold-note)------|
D|-5-5-5-5----------------5-5-5-5-----0(hold note)------|
A VOICE WITHOUT A!!!...

Order:
Intro 1---------|x1
Intro 2---------|x1
Verse part 1---x1
Verse part 2---x2
Pre-chorus------|x1
Chorus----------|x1
Riff 1----------|x1
Verse part 1---x1
Riff 1----------|x1
Pre-chorus------|x1
Chorus----------|x1
Bridge----------|x2
Intro 1---------|x1
Chorus----------|x2
Outro part 1---x3
Outro part 2---x1
Suggest correction new What's this?
You can suggest a correction to this tab. Community and Mods will review your correction and vote to approve or reject it.
comments
print report bad tab
9 comments total. Showing first comments.
0 reply
hakudoushi 460 wrote on May 20 2006, 09:20 am

Oops, this was tabbed by me, I just forgot to log in. Hah. Well anyways...yeah.

0 reply
hakudoushi 460 wrote on May 21 2006, 11:07 am

Oops, also the very last chord isn't open, I forgot to put this, hehe, it's:

e|-----------------------------|
B|-----------------------------|
G|-----------------------------|
D|-5---------------------------|
A|-5-(Let-chord-ring)----------|
D|-5---------------------------|

0 reply
Zuka 698 wrote on May 25 2006, 08:56 pm

Overuse of the Oops term. Beep beep. Billy Talent stop releasing your DAMN SONGS! 55% or your songs are released! Save a little...

guest
You may want to rate the tab now too:
select rating
Please do not post tabs as comments. Select "correction" instead!