Oops, an error
Loading. Please wait.

Covered In Cowardice Bass Tab

version 2
version 2

Whole song

Interactive

331 views 1 this week
no commentswrite comment
1 2 3 4 5
please rate
add to favorites
launch autoscroll
font size
0
reset
guitar tuner
Autoscroll
slow
fast
+/-
esc
set tempo
stop
Help us to improve Ultimate-Guitar.com Take our survey!
×
Contributor
Difficulty
intermediate
Intro 0:11

G|--------------------------------------------------------------------------|
D|--------------------------------------------------------------------------|
A|---------------------6-6-6-6-6-6-6-6------------------4-4-4-4-4-4--777----|
E|----44-44-44-44-44-4-----------------22-22-22-22-22-2---------------------|

Verse X 2

G|------------------------------------------------------------------------|
D|------------------------------------------------------------------------|
A|---------------------6-6-6-6-6-6-6-6------------------4-4-4-4-4-4-4-4---|
E|----44-44-44-44-44-4-----------------22-22-22-22-22-2-------------------|

Pre Chorus 

G|------------------------------------------------------------------------------|
D|------------------------------------------------------------------------------|
A|----00000000--77777777--55555555----------------------77777777--55555555--2---|
E|----------------------------------22222222--44444444--------------------------|

Chorus 

G|---------------------------------------------------------------------|
D|-----------------5---------------------------------------------------|
A|---------------5---5---------------00000000--77777777--55555-2-------|
E|----5555-8---5--------5555-8-0˜---------------------------------0˜---|

G|----------------------------------|
D|-----------------5----------------|
A|---------------5---5--------------|
E|----5555-8---5--------5555-8-0˜---|

Post Chorus

G|-----------------------------------------------------------------------------|
D|-----------------------------------------------------------------------------|
A|----00000000--77777777--55555555--22222222--00000000--77777777--55555-2------|
E|------------------------------------------------------------------------0˜---|

Verse X 4

G|-------------------------------------------------------------------------|
D|-------------------------------------------------------------------------|
A|---------------------6-6-6-6-6-6-6-6-------------------4-4-4-4-4-4-4-4---|
E|----44-44-44-44-44-4------------------22-22-22-22-22-2-------------------|

Pre Chorus 

G|------------------------------------------------------------------------------|
D|------------------------------------------------------------------------------|
A|----00000000--77777777--55555555----------------------77777777--55555555--2---|
E|----------------------------------22222222--44444444--------------------------|

Chorus 

G|---------------------------------------------------------------------|
D|-----------------5---------------------------------------------------|
A|---------------5---5-----------------00000000--77777777--55555-2-----|
E|----5555-8---5--------5555-8-0˜---------------------------------0˜---|

G|----------------------------------|
D|-----------------5----------------|
A|---------------5---5--------------|
E|----5555-8---5--------5555-8-0˜---|

Post Chorus

G|-----------------------------------------------------------------------------|
D|-----------------------------------------------------------------------------|
A|----00000000--77777777--55555555--22222222--00000000--77777777--55555-2------|
E|------------------------------------------------------------------------0˜---|





Bridge 2:43

G|-------------------------------------------------------------------------------------------|
D|-------------------------------------------------------------------------------------------|
A|---3333-5555-77777777-9999-12121212-14141414-16161616---5555-7-----------------------------|
E|---------------------------------------------------------------5555-7---0-0-0-0--2-2-2-2---|

G|--------------------------------------------------------------------------------------------|
D|--------------------------------------------------------------------------------------------|
A|---3333-5555-77777777-9999-12121212-14141414-16161616---5555-7------------------------------|
E|---------------------------------------------------------------5555-7---0-0-0-0---3333333---|

Pause Until 3:09

G|------------------------|
D|------------------------|
A|------------------------|
E|----4˜-----7˜-----999---|

Chorus 

G|----------------------------------------------------------------------|
D|-----------------5----------------------------------------------------|
A|---------------5---5-----------------00000000--77777777--55555-2------|
E|----5555-8---5--------5555-8-0˜----------------------------------0˜---|

G|----------------------------------|
D|-----------------5----------------|
A|---------------5---5--------------|
E|----5555-8---5--------5555-8-0˜---|

Post Chorus

G|-----------------------------------------------------------------------------------------------|
D|-----------------------------------------------------------------------------------------------|
A|----00000000--77777777--55555555--22222222--00000000--77777777--55555555--22222222-------------|
E|-----------------------------------------------------------------------------------------------|

G|-----------------------------------------------------------------------------------------------|
D|------------------------------------------------------------------------------5----------------|
A|----00000000--77777777--55555555--22222222--00000000--77777777--------------5---5--------------|
E|-----------------------------------------------------------------5555-8---5--------5555-8-5˜---|
comments
We did not receive enough feedback on this tab! Please rate:
print report bad tab
1 2 3 4 5
I want to post or [tab]
guest
You may want to rate the tab now too:
select rating
Please do not post tabs as comments. Select "correction" instead!