Oops, an error
Loading. Please wait.

Covered In Cowardice Bass Tab

version 3
version 3

Whole song

Interactive

2,070 views 6 this week
1 commentread comment
1 2 3 4 5
excellent!
x 5
add to favorites
launch autoscroll
font size
0
reset
guitar tuner
Autoscroll
slow
fast
+/-
esc
set tempo
stop
Help us to improve Ultimate-Guitar.com Take our survey!
×
Author
Song: Covered In Cowardice
Artist: Billy Talent
Album: Billy Talent II

This is a fun song to play and it’s not very hard at all. Unfortunately I had to tab out
third chorus in full because it is slightly different from the other ones at the end,
watch for that. I have arranged all the notes according to the timing of the song so it 
be easy enough to follow. And finally, if you want to print out this tab, simply use
font Courier New, size 9. This will ensure that each and every line of tab has all four 
on the same page. Enjoy!


INTRO   ( :  )

G|----------------|----------------|----------------|----------------|
D|----------------|----------------|----------------|----------------|
A|----------------|----------------|----------------|----------------|
D|5-5-5---5-5---5-|5---5-5---5---5-|0---0---0---0---|0---0---0---0---|

G|----------------|----------------|----------------|----------------|
D|----------------|----------------|----------------|----------------|
A|1-1-1---1-1---1-|1---1-1---1---1-|----------------|--------3-3-3---|
D|----------------|----------------|1---1---1---1---|1---1-----------|


VERSE 1   ( :  )

G|----------------|----------------|----------------|----------------|
D|----------------|----------------|----------------|----------------|
A|----------------|----------------|5~~~~~~~~~~~~~~~|(5)-------------|
D|5~~~~~~~~~~~~~~~|(5)-------------|----------------|----------------|

G|----------------|----------------|----------------|----------------|
D|----------------|----------------|----------------|----------------|
A|1~~~~~~~~~~~~~~~|(1)-------------|----------------|----------------|
D|----------------|----------------|1~~~~~~~~~~~~~~~|(1)-------------|

G|----------------|----------------|----------------|----------------|
D|----------------|----------------|----------------|----------------|
A|----------------|----------------|5---5---5---5---|5---5---5---5---|
D|5-5-5---5-5---5-|5---5-5---5---5-|----------------|----------------|

G|----------------|----------------|----------------|----------------|
D|----------------|----------------|----------------|----------------|
A|1-1-1---1-1---1-|1---1-1---1---1-|----------------|----------------|
D|----------------|----------------|1---1---1---1---|1---1-1-1-1-1-1-|


PRE-CHORUS 1   ( :  )

G|----------------|----------------|----------------|----------------|
D|----------------|----------------|----------------|----------------|
A|3-3-3-3-3-3-3-3-|6-6-6-6-6-6-6-6-|----------------|----------------|
D|----------------|----------------|5-5-5-5-5-5-5-5-|3-3-3-3-3-3-3-3-|

G|----------------|----------------|----------------|----------------|
D|----------------|----------------|----------------|----------------|
A|3-3-3-3-3-3-3-3-|6-6-6-6-6-6-6-6-|----------------|----------------|
D|----------------|----------------|5-5-5-5-5-5-5-5-|3---------------|

CHORUS 1   ( :  )

G|----------------|----------------|----------------|----------------|
D|----------------|--------5-------|----------------|----------------|
A|----------------|----5-----------|----------------|----------------|
D|5-5-5-5---8-----|5-----------0---|5-5-5-5---8-----|0---------------|

G|----------------|----------------|----------------|----------------|
D|----------------|----------------|----------------|----------------|
A|----------------|3-3-3-3-3-3-3-3-|----------------|----------------|
D|1-1-1-1-1-1-1-1-|----------------|5-5-5-5---8-----|3---------------|

G|----------------|----------------|----------------|----------------|
D|----------------|--------5-------|----------------|----------------|
A|----------------|----5-----------|----------------|----------------|
D|5-5-5-5---8-----|5-----------0---|5-5-5-5---8-----|0---------------|

G|----------------|----------------|----------------|----------------|
D|----------------|----------------|----------------|----------------|
A|----------------|3-3-3-3-3-3-3-3-|----------------|----------------|
D|1-1-1-1-1-1-1-1-|----------------|5-5-5-5-5-5-5-5-|3-3-3-3-3-3-3-3-|

G|----------------|----------------|----------------|----------------|
D|----------------|----------------|----------------|----------------|
A|----------------|3-3-3-3-3-3-3-3-|----------------|----------------|
D|1-1-1-1-1-1-1-1-|----------------|5-5-5-5---8-----|0---------------|


PRE-VERSE 2   ( :  )

G|----------------|----------------|----------------|----------------|
D|----------------|----------------|----------------|----------------|
A|----------------|----------------|5---5---5---5---|5---5---5---5\--|
D|5-5-5---5-5---5-|5---5-5---5---5-|----------------|----------------|

G|----------------|----------------|----------------|----------------|
D|----------------|----------------|----------------|----------------|
A|1-1-1---1-1---1-|1---1-1---1---1-|----------------|--------3-3-3---|
D|----------------|----------------|1---1---1---1---|1---1-----------|


VERSE 2   ( :  )  -> Play verse 1

PRE-CHORUS 2   ( :  )  -> Play pre-chorus 1

CHORUS 2   ( :  )  -> Play chorus 1

INTERLUDE   ( :  )

G|----------------|----------------|----------------|----------------|
D|----------------|----------------|----------------|5-5-5-5-8-8-8-8-|
A|----------------|--------5-5-5-5-|6-6-6-6-8-8-8-8-|----------------|
D|5-5-5-5-7-7-7-7-|8-8-8-8---------|----------------|----------------|

G|----------------|----------------|----------------|----------------|
D|----------------|----------------|----------------|----------------|
A|3-3-3-3---6-----|----------------|----------------|----------------|
D|----------------|5-5-5-5---8-----|0---------------|1---1---1---1---|

G|----------------|----------------|----------------|----------------|
D|----------------|----------------|----------------|5-5-5-5-8-8-8-8-|
A|----------------|--------5-5-5-5-|6-6-6-6-8-8-8-8-|----------------|
D|5-5-5-5-7-7-7-7-|8-8-8-8---------|----------------|----------------|

G|----------------|----------------|----------------|----------------|
D|----------------|----------------|----------------|----------------|
A|3-3-3-3---6-----|----------------|----------------|----------------|
D|----------------|5-5-5-5---8-----|0---------------|1-1-1-1-1-1-1-1-|


G|----------------|----------------|----------------|----------------|
D|----------------|----------------|----------------|----------------|
A|----------------|----------------|----------------|----------------|
D|5---------------|----------------|0~~~~~~~~~~~~~~~|(0)-------------|

G|----------------|----------------|----------------|----------------|
D|----------------|----------------|----------------|----------------|
A|1---------------|----------------|----------------|--------3-3-3---|
D|----------------|----------------|1~~~~~~~~~~~~~~~|(1)-------------|


CHORUS 3   ( :  )

G|----------------|----------------|----------------|----------------|
D|----------------|--------5-------|----------------|----------------|
A|----------------|----5-----------|----------------|----------------|
D|5-5-5-5---8-----|5-----------0---|5-5-5-5---8-----|0---------------|

G|----------------|----------------|----------------|----------------|
D|----------------|----------------|----------------|----------------|
A|----------------|3-3-3-3-3-3-3-3-|----------------|----------------|
D|1-1-1-1-1-1-1-1-|----------------|5-5-5-5---8-----|3---------------|

G|----------------|----------------|----------------|----------------|
D|----------------|--------5-------|----------------|----------------|
A|----------------|----5-----------|----------------|----------------|
D|5-5-5-5---8-----|5-----------0---|5-5-5-5---8-----|0---------------|

G|----------------|----------------|----------------|----------------|
D|----------------|----------------|----------------|----------------|
A|----------------|3-3-3-3-3-3-3-3-|----------------|----------------|
D|1-1-1-1-1-1-1-1-|----------------|5-5-5-5-5-5-5-5-|3-3-3-3-3-3-3-3-|  x3

G|----------------|----------------|----------------|----------------|
D|----------------|----------------|----------------|--------5-------|
A|----------------|3-3-3-3-3-3-3-3-|----------------|----5-----------|
D|1-1-1-1-1-1-1-1-|----------------|5-5-5-5---8-----|5-----------0---|

G|----------------|----------------|
D|----------------|----------------|
A|----------------|----------------|
D|5-5-5-5---8-----|5---------------|    - :


Symbol Legend:

~    = Let note ring
(5)  = Let note ring into next bar
\    = Slide down
x3   = Play this section three times

That’s it. Any questions, comments, suggestions or corrections would be appreciated.
Suggest correction
comments
print report bad tab
1 comment total.
0 reply
thunderhawk 535 wrote on May 8 2010, 06:14 pm

great tab. 5 stars. and i like that u made it good to print, i REALLY appreciate that. great job!

guest
You may want to rate the tab now too:
select rating
Please do not post tabs as comments. Select "correction" instead!