Oops, an error
Loading. Please wait.

Crooked Minds Tab

version 1
version 1

Whole song

Interactive

13,865 views 27 this week
2 commentsread comments
1 2 3 4 5
accurate
x 10
add to favorites
launch autoscroll
font size
0
reset
how to read this tab
guitar tuner
Tab Pro tools
  • play this tab
  • loop segment
  • change instrument
  • show fretboard
  • metronome
×
Best way to learn
"Crooked Minds"
Autoscroll
slow
fast
+/-
esc
set tempo
stop
Contributor
Difficulty
Tuning
intermediate
D A D G B E
=====================================================================
CROOKED MINDS
=====================================================================

========
UPDATES
========
Sept. 13, 2012 - The solo was missing some notes on the lower half of some power chords. 
This has been fixed, and a very slightly different pattern that's easy to notice by ear 
has been added to the solo.

=====================================================================

Seventh track off of Billy Talent's "Dead Silence" record.

Woo, this'll be my first tab, but I was determined for it to be right.
So hope you guys enjoy this tab, and let me know if you find errors or corrections!

landonduval@rogers.com

Before we get to the real business, I am aware that this song has two guitars.
(If this is news to you, listen to the verse bridge thing at around 1:30 in and
there are two guitars playing, although it isn't the only part it is.) For the
sake of this being a Billy Talent song, I've only tabbed one combined part,
because there is only one (amazing) guitarist. Enjoy!


Gtr I : Ian D'Sa (Light Distortion)
Tuning : D A D G B e
Tempo : 142
Time Signature: 4/4

INTRO
e||------------------|----------------------|-----------------------|
B||-------6-------10-|--------10---------15-|---------15---------15-|
G||-----0-------0----|------0----------0----|-------0----------0----|
D||---7-------8------|---10---------15------|----15---------15------|
A||-5-------7--------|-8---------13---------|-12---------13---------|
D||------------------|----------------------|-----------------------|

e|-----------------------|-------------------|----------------------|
B|-----------------------|-------------------|----------------------|
G|-------0-14-------0-13-|-------13-------13-|-------14----------13-|
D|----15---------15------|-----8--------8----|-----8----------15----|
A|-12---------12---------|---8--------8------|---8---------12-------|
D|-----------------------|-8--------8--------|-8--------12----------|

e|-------------------|----------------------|
B|-------------------|----------------------|
G|-------13-------13-|-------14----------14-|
D|-----8--------8----|-----8----------15----|
A|---8--------8------|---8---------12-------|
D|-8--------8--------|-8--------12----------|

This is where Ben comes in with the vocals...

e||------------------|----------------------|-----------------------|
B||-------6-------10-|--------10---------15-|---------15---------15-|
G||-----0-------0----|------0----------0----|-------0----------0----|
D||---7-------8------|---10---------15------|----15---------15------|
A||---------7--------|-8---------13---------|-12---------13---------|
D||-0----------------|----------------------|-----------------------|

e|-----------------------|-------------------|----------------------|
B|-----------------------|-------------------|----------------------|
G|-------0-14-------0-13-|-------13-------13-|-------14----------13-|
D|----15---------15------|-----8--------8----|-----8----------15----|
A|-12---------12---------|---8--------8------|---8---------12-------|
D|-----------------------|-8--------8--------|-8--------12----------|

e|-------------------|----------------------||
B|-------------------|----------------------||
G|-------13-------13-|----------------------||
D|-----8--------8----|----------------------||
A|---8--------8------|--------------5-6-5-3-||
D|-8--------8--------|-8------------5-6-5-3-||


CHORUS
e|-----------------|-----------------|-----------------|------------------|
B|-6---------------|-8---------------|-10------15------|-15-------6-6-6-6-|
G|-7---------------|-0---------------|-0-------0-------|-0--------0-0-0-0-|
D|-7---------------|-8---------------|-10------15------|-15-------7-7-7-7-|
A|-5--0-0-5-7-10-7-|-7--0-0-5-7-10-7-|-8--0-0--13--0-0-|-12--0-0--5-5-5-5-|
D|----0-0-5-7-10-7-|----0-0-5-7-10-7-|----0-0------0-0-|-----0-0----------|

e|---------------------------|---------------|---------------------|
B|-10-10-10-10-10-10-10-10---|-10-10-10-10---|-10-10-10-10---------|
G|-0—-0--0--0--0--0--0--0----|-0--0--0--0----|-0--0--0--0----------|
D|-10-10-10-10-10-10-10-10---|-10-10-10-10---|-10-10-10-10---------|
A|-8—-8--8--8--8--8--8--8-x2-|-0--0--0--0-x2-|-0--0--0--0--5-6-5-3-|
D|---------------------------|---------------|-------------5-6-5-3-|


VERSE 1
e|-----------------|-------------||
B|-----------------|-------6-6-6-||
G|-----------------|-------0-0-0-||  Play
D|---------------7-|-7-----7-7-7-||   x6
A|-8-8-8-0-8-8-0-5-|-5-5-5-5-5-5-||
D|-0-0-0-0-0-0-0-0-|-0-0-0-------||
PM . . . . . . .    PM . .


PRE-CHORUS
e|-----------------|-------------------------|-----------------|
B|-----------------|-------------------------|-6-6-6-6-6-6-6-6-|
G|-7-7-7-7-7-7-7-7-|-10-10-10-10-10-10-10-10-|-7-7-7-7-7-7-7-7-|
D|-7-7-7-7-7-7-7-7-|-7--7--7--7--7--7--7--7--|-7-7-7-7-7-7-7-7-|
A|-5-5-5-5-5-5-5-5-|-5--5--5--5--5--5--5--5--|-5-5-5-5-5-5-5-5-|
D|-----------------|-------------------------|-5-5-5-5-5-5-5-5-|

e|---------------------|
B|-11-11-11-11---------|
G|-12-12-12-12---------|
D|-12-12-12-12---------|
A|-10-10-10-10-5-6-5-6-|
D|-10-10-10-10-5-6-5-6-|


VERSE 1 (play x4)

PRE-CHORUS (play x1)

CHORUS (play x2)


VERSE 2
e|-----------------|-----------------|-------------------------|
B|-6-6-6-6-6-6-6-6-|-8-8-8-8-8-8-8-8-|-10-10-10-10-10-10-10-10-|
G|-7-7-7-7-7-7-7-7-|-9-9-9-9-9-9-9-9-|-10-10-10-10-10-10-10-10-|
D|-7-7-7-7-7-7-7-7-|-8-8-8-8-8-8-8-8-|-10-10-10-10-10-10-10-10-|
A|-5-5-5-5-5-5-5-5-|-7-7-7-7-7-7-7-7-|-8--8--8--8--8--8--8--8--|
D|-----------------|-----------------|-------------------------|

e|-----------------| e|-------------------------|      NOTE HERE!!-!!
B|-3-3-3-3-3-3-3-3-| B|--------------------------------------------!! This section is played
G|-3-3-3-3-3-3-3-3-| G|-15-15-15-15-15-15-15-15--------------------!! 3 times, with 2 different
D|-3-3-3-3-3-3-3-3-| D|-15-15-15-15-15-15-15-15--------------------!! endings. They ARE NOT in
A|-1-1-1-1-1-1-1-1-| A|-13-13-13-13-13-13-13-13--------------------!! order, but both endings
D|-----------------| D|--------------------------------------------!! are here.
  Ending #1 AND #3      Ending #2 Only


PRE-CHORUS (play x1)

CHORUS (play x2)


SOLO
e|------------------|----------------|-----------------|
B|------------------|----------------|-----------------|
G|------------------|----------------|-----------------|
D|----------------0-|----------5-----|-----------------|
A|-/5---------0-3---|-3--3-0-3---3-0-|-8-8-8-8-8-8-7-5-|
D|-----0-0-5--------|----------------|-8-8-8-8-8-8-7-5-|

e|-----------------|
B|-----------------|
G|-----------------|  Play
D|-----------------|   x2
A|---5---3-5-6-5-3-|
D|---5---3-5-6-5-3-|


BRIDGE
e|-----------------|-------------------------|-------------------------|
B|-6-6-6-6-6-6-6-6-|-10-10-10-10-10-10-10-10-|-15-15-15-15-15-15-15-15-|
G|-7-7-7-7-7-7-7-7-|-0--0--0--0--0--0--0--0--|-0--0--0--0--0--0--0--0--|
D|-7-7-7-7-7-7-7-7-|-10-10-10-10-10-10-10-10-|-15-15-15-15-15-15-15-15-|
A|-5-5-5-5-5-5-5-5-|-8--8--8--8--8--8--8--8--|-13-13-13-13-13-13-13-13-|
D|-----------------|-------------------------|-------------------------|

e|-13-13-13-13-13-13-13-13-|
B|-15-15-15-15-15-15-15-15-|
G|-------------------------|  Play
D|-15-15-15-15-15-15-15-15-|   x2
A|-13-13-13-13-13-13-13-13-|
D|-------------------------|

On the third time, play this;

e|-----------------|-------------------------|-------------------------|
B|-6-6-6-6-6-6-6-6-|-10-10-10-10-10-10-10-10-|-15-15-15-15-15-15-15-15-|
G|-7-7-7-7-7-7-7-7-|-0--0--0--0--0--0--0--0--|-0--0--0--0--0--0--0--0--|
D|-7-7-7-7-7-7-7-7-|-10-10-10-10-10-10-10-10-|-15-15-15-15-15-15-15-15-|
A|-5-5-5-5-5-5-5-5-|-8--8--8--8--8--8--8--8--|-13-13-13-13-13-13-13-13-|
D|-----------------|-------------------------|-------------------------|

e|-------------------------|-------------------------|-----------------|
B|-15-15-15-15-15-15-15-15-|-15-15-15-15-15-15-15-15-|-6-6-6-6-6-6-6-6-|
G|-0--0--0--0--0--0--0--0--|-0--0--0--0--0--0--0--0--|-7-7-7-7-7-7-7-7-|
D|-15-15-15-15-15-15-15-15-|-15-15-15-15-15-15-15-15-|-7-7-7-7-7-7-7-7-|
A|-13-13-13-13-13-13-13-13-|-13-13-13-13-13-13-13-13-|-5-5-5-5-5-5-5-5-|
D|-------------------------|-------------------------|-----------------|

e|-----------------|
B|-6-6-6-6-6-6-6-6-|
G|-7-7-7-7-7-7-7-7-|
D|-7-7-7-7-7-7-7-7-|
A|-5-5-5-5-5-5-5-5-|
D|-----------------|


INTRO (play x1)

CHORUS (play x2)

BRIDGE (play x3)


OUTRO
e|-----------------|-------------------------|-6-6-6-6-6-6-6-6------------|
B|-----------------|-------------------------|-6-6-6-6-6-6-6-6------------|
G|-7-7-7-7-7-7-7-7-|-10-10-10-10-10-10-10-10-|-7-7-7-7-7-7-7-7------------|
D|-7-7-7-7-7-7-7-7-|-7--7--7--7--7--7--7--7--|-5-5-5-5-5-5-5-5------------|
A|-5-5-5-5-5-5-5-5-|-5--5--5--5--5--5--5--5--|-5-5-5-5-5-5-5-5------------|
D|-----------------|-------------------------|-5-5-5-5-5-5-5-5------------|

e|-5-5-5-5--------------------|
B|-6-6-6-6--------------------|
G|-7-7-7-7--------------------|
D|-5-5-5-5--------------------|
A|-5-5-5-5-5-6-5-3-0~~~~~~~~--|
D|-5-5-5-5-5-6-5-3-0~~~~~~~~--|


That's the song! Hope it helps you out!
And a friendly reminder, if you do happen to find any mistakes,
please e-mail the corrections to me at landonduval@rogers.com
comments
print report bad tab
2 comments total.
0 reply
bangbang!! wrote on February 25 2014, 01:43 am

Great tab, really close.
Solo should be
e|------------------|----------------|-----------------|
B|------------------|----------------|-----------------|
G|------------------|----------------|-----------------|
D|----------------0-|----------3-----|-----------------|
A|-/5---------0-3---|-3--3-0-3---5-3-|-8-8-8-8-8-8-7-5-|
D|-----0-0-5--------|----------------|-8-8-8-8-8-8-7-5-|

0 reply
McBert wrote on November 11 2014, 07:20 am

Ya nice tab, but the intro sounds to me more like that:

INTRO
e||-------------------|-------------------10--|-------10--------10---|
B||-------6--------10-|--------10-------8-----|-----8---------8------|
G||-----0--------0----|------0--------7-------|---7---------7--------|
D||---7--------8------|----7--------8---------|-7---------8----------|
A||-5--------7--------|-8---------------------|----------------------|
D||-------------------|-----------------------|----------------------|

e|-------10------------|----------------------|----------------------|
B|-----8------------10-|-------9--------9-----|-------9----------10--|
G|---7------------0----|-----7---------7------|-----7----------0-----|
D|-7------------7------|---0---------0--------|---0----------7-------|
A|------------8--------|----------------------|------------8---------|
D|---------------------|-8---------8----------|-8--------------------|

e|----------------------|----------------------|
B|-------9--------9-----|-------9----------10--|
G|-----7---------7------|-----7----------0-----|
D|---0---------0--------|---0----------7-------|
A|----------------------|------------8---------|
D||8---------8----------|-8--------------------|

I want to post or [tab]
guest
You may want to rate the tab now too:
select rating
Please do not post tabs as comments. Select "correction" instead!