Oops, an error
Loading. Please wait.

Cure For The Enemy bass

version 1
version 1

Whole song

Interactive

2,006 views 6 this week
1 commentread comment
1 2 3 4 5
x 3
add to favorites
×
Save as Personal and add changes to this tab that will be seen only by you. Learn more ›
×
You can save this tab as Personal to edit and correct it or add notes. All changes will be seen only by you. Learn more »
launch autoscroll
font size
0
reset
guitar tuner
edit
Autoscroll
slow
fast
+/-
esc
set tempo
stop
Billy Talent - Cure for the Enemy

A great song off Billy Talent's 'Dead Silence'

-Note the 3/4 time signature

Tuning: Drop D (The guitar is tuned to Drop C#, But this song is playable in Drop D)

Intro: (0:08)
G|------------|------------|------------|------------|
D|------------|------------|------------|------------|
A|------------|------------|------------|------------|
D|1-1-1-111-1-|1-1-1-111-1-|0-0-0-0-0-0-|0-0-0-0-0-0-|

G|------------|------------|------------|-------------|
D|------------|------------|------------|-------------|
A|2-2-2-222-2-|2-2-2-22-2-2|-1-1-1-111-1|-1-1-1-11-0--|
D|------------|------------|------------|------------3|



Verse: (0:24) 
G|------------|------------|------------|-------------|
D|------------|------------|------------|-------------|
A|-66-6-66-6-6|-66-6-66-6-6|-44-4-44-6h8|-44-4-4-8p6-4|
D|------------|------------|------------|-------------|
"Time drifts through the sky"

G|--------3---|------------|------------|-------------|
D|------------|------------|------------|-------------|
A|-22-2-2---22|-22-2-22-2-2|-11-1-11-1-1|-11-1-1-1/7/5|
D|------------|------------|------------|-------------|

G|------------|------------|------------|-------------|
D|------------|------------|------------|-------------|
A|-66-6-66-6-6|-66-6-66-6-6|-44-4-44-6h8|-44-4-4-8p6-4|
D|------------|------------|------------|-------------|
"We used to fight"

G|--------3---|------------|------------|-------------|
D|------------|------------|------------|-------------|
A|-22-2-2---22|-22-2-22-2-2|-11-1-11-1-1|-11-1-1-1-0--|
D|------------|------------|------------|------------3|



First chorus: (0:56)
G|------------|------------|------------|------------|
D|------------|------------|------------|------------|
A|------------|------------|------------|------------|
D|1-1-1-111-1-|1-1-1-111-1-|0-0-0-0-0-0-|0-0-0-0-0-0-|
"In darkness we'll rest"

G|------------|------------|------------|-------------|
D|------------|------------|------------|-------------|
A|2-2-2-222-2-|-2-2-2-222-2|-1-1-1-111-1|-1-1-1-11-0--|
D|------------|------------|------------|------------3|



Verse 2: (1:12)
G|------------|------------|------------|-------------|
D|------------|------------|------------|-------------|
A|-66-6-66-6-6|-66-6-66-6-6|-44-4-44-6h8|-44-4-4-8p6-4|
D|------------|------------|------------|-------------|
"We said that we would call"

G|-------3----|------------|------------|-------------|
D|------------|------------|------------|-------------|
A|-22-2-2---22|-22-2-22-2-2|-11-1-11-1-1|-11-1-1-1/7/5|
D|------------|------------|------------|-------------|

G|------------|------------|------------|-------------|
D|------------|------------|------------|-------------|
A|-66-6-66-6-6|-66-6-66-6-6|-44-4-44-6h8|-44-4-4-8p6-4|
D|------------|------------|------------|-------------|
"If this is the end"

G|--------3---|------------|------------|-------------|
D|------------|------------|------------|-------------|
A|-22-2-2---22|-22-2-22-2-2|-11-1-11-1-1|-11-1-1-1-0--|
D|------------|------------|------------|------------3|



Second Chorus: (1:44)
G|------------|------------|------------|-------------|
D|------------|------------|------------|-------------|
A|------------|------------|-4-4-4-4-4-4|-4-4-4-4-4-4-|
D|-44-4-44-6-7|-44-4-44-6-7|------------|-------------|
"So open your eyes"

G|------------|------------|------------|-------------|
D|------------|------------|------------|-------------|
A|-22-2-22-2-1|------------|------------|-------------|
D|------------|-55-5-55-5-5|-1-1-1-3-4-5|-0-0-0-0-0-0-|

G|------------|------------|------------|-------------|
D|------------|------------|------------|-------------|
A|------------|------------|-4-4-4-4-4-4|-4-4-4-4-4-4-|
D|-44-4-44-6-7|-44-4-44-6-7|------------|-------------|
It's time we make right"

G|------------|------------|------------|------------|
D|------------|------------|------------|------------|
A|-22-2-22-2-1|------------|------------|------------|
D|------------|-55-5-55-5-5|-1-1-1-3-4-5|-0-0-0-0-0-0|



Interlude: (2:16)
G|------------|------------|------------|------------|
D|------------|------------|------------|------------|
A|-----11---11|-----11---11|------------|------------|
D|11-1----11--|11-1----11--|00-0-77-0077|00-0-77-0077|

G|-----------------|-----------------|-------------------|-------------------|
D|-----------------|-----------------|-------------------|-------------------|
A|-----------------|-----------------|-------------------|--------------4----|
D|99-9-9-12-99-1212|99-9-9-12-99-1212|88-8-8-11-8-8-11-11|88-8-8-11-8-8---6-4|



Bridge: (2:34)
G|------------|------------|------------|------------|
D|------------|------------|------------|------------|
A|-----11---11|-----11---11|------------|------------|
D|11-1----11--|11-1----11--|00-0-77-0077|00-0-77-0077|
"All those you've loved"

G|-----------------|-----------------|-------------------|------------------|
D|-----------------|-----------------|-------------------|------------------|
A|-----------------|-----------------|-------------------|--------------4-1-|
D|99-9-9-12-99-1212|99-9-9-12-99-1212|88-8-8-11-8-8-11-11|88-8-8-11-8-8----4|


(Don't staccato the notes)
G|------------|------------|------------|------------|
D|------------|------------|------------|------------|
A|-----11---11|-----11---11|------------|------------|
D|11-1----11--|11-1----11--|00-0-77-0077|00-0-77-0077|
"All those you've loved"

G|------------------|------------------|-------------------|------------------|
D|------------------|------------------|-------------------|------------------|
A|------------------|------------------|-------------------|------------4-1-0-|
D|99~9~9~12~999~1212|99~9~9~12~999~1212|88~8~8~11~888~11-11|88~8~8~11~8~------|



Second Chorus:(3:04)
G|------------|------------|------------|-------------|
D|------------|------------|------------|-------------|
A|------------|------------|-4-4-4-4-4-4|-4-4-4-4-4-4-|
D|-44-4-44-6-7|-44-4-44-6-7|------------|-------------|
"So open your eyes"

G|------------|------------|------------|-------------|
D|------------|------------|------------|-------------|
A|-22-2-22-2-1|------------|------------|-------------|
D|------------|-55-5-55-5-5|-1-1-1-3-4-5|-0-0-0-0-0-0-|

G|------------|------------|------------|-------------|
D|------------|------------|------------|-------------|
A|------------|------------|-4-4-4-4-4-4|-4-4-4-4-4-4-|
D|-44-4-44-6-7|-44-4-44-6-7|------------|-------------|
It's time we make right"

G|------------|------------|------------|-------------|
D|------------|------------|------------|-------------|
A|-22-2-22-2-1|------------|------------|-------------|
D|------------|-55-5-55-5-5|-1-1-1-3-4-5|-0-0-0-0-0-0-|



First Chorus (3:38)
G|------------|------------|------------|------------|
D|------------|------------|------------|------------|
A|------------|------------|------------|------------|
D|1-1-1-111-1-|1-1-1-111-1-|0-0-0-0-0-0-|0-0-0-0-0-0-|
"In darkness we'll rest"

G|------------|------------|------------|-------------|
D|------------|------------|------------|-------------|
A|2-2-2-222-2-|2-2-2-22-2-2|-1-1-1-111-1|-1-1-1-11-0--|
D|------------|------------|------------|------------3|


G|------------|------------|------------|------------|
D|------------|------------|------------|------------|
A|------------|------------|------------|------------|
D|1-1-1-111-1-|1-1-1-111-1-|0-0-0-0-0-0-|0-0-0-0-0-0-|
"In darkness we'll rest"

G|------------|------------|------------|-------------|
D|------------|------------|------------|-------------|
A|2-2-2-222-2-|2-2-2-22-2-2|-1-1-1-111-1|-1-1-1-11-0--|
D|------------|------------|------------|------------3|

End note:
G|----|
D|----|
A|----|
D|-1~-|


Song Structure:
Intro
Verse
First Chorus
Verse 2
Second Chorus
Interlude
Bridge
Second Chorus
First Chorus
First Chorus

Legend:
h   - hammer-on
p   - pull-off
/\  - slide up/down
~   - Let ring

            
            
Suggest correction
Creating personal tab
Creating personal tab
You can edit any tab online and save it as your Personal.

You can edit, replace or remove any tab part or add personal notes – all changes will be seen only by you.

Personal tabs can be accessed anytime from any device, even offline.
Learn more »
Give kudos to tab author, rate the tab!
1 2 3 4 5
comments
print report bad tab
1 comment total.
0 reply
robert.fleck.96 10 Apr 30, 2014 08:21 AM

I think the first 4 tacts in the Intro and Chorus are wrong.
Its not D 33333333 11111111
Play instead A 44444444
D 11111111

guest
You may want to rate the tab now too:
select rating
Wanna post a correction for this tab? Suggest correction