Oops, an error
Loading. Please wait.

Cure For The Enemy intro tab

version 1
version 1

Intro

Whole song

Interactive

1,348 views 1 this week
no commentswrite comment
1 2 3 4 5
3 more votes to show rating
add to favorites
×
Save as Personal and add changes to this tab that will be seen only by you. Learn more ›
×
You can save this tab as Personal to edit and correct it or add notes. All changes will be seen only by you. Learn more »
launch autoscroll
font size
0
reset
how to read this tab
guitar tuner
edit
Autoscroll
slow
fast
+/-
esc
set tempo
stop
-------------------------------------------------------------------------------
                             Billy Talent - Cure for the Enemy (Intro)
-------------------------------------------------------------------------------
Tabbed by: LehHay95

Tuning: Drop C# (C# G# C# F# A# D#)

I found these tabs for the intro of "Cure for the Enemy" out by BT by ear. Haven't found 
any other (good) tabs
for the song that even sounded a bit like the song so far haha. I hope these tabs will 
help you.
Tuning as already mentioned is Drop C#, unlike other BT songs which are mostly in Drop D


D#|-0----------0-------0----------0--------------0-----0------(7)-------------|
A#|-8------------------7----------------------------------0----7h8p7----------|
F#|-8h9-----7----------7h9-----7--------------5-----7----------7------9p7h9---|
C#|-9----9--------9----9----9--------9-----7-------------------9--------------|
G#|---------------------------------------------------------------------------|
C#|---------------------------------------------------------------------------|

D#|-------0-----0------(7)----------------------------------------------------|
A#|----------------0----7h8p7--------------5----------------------------------|
F#|----5-----7----------7------9p7---------4----------------------------------|
C#|-7-------------------9-----------9------4----------------------------------|
G#|----------------------------------------2----------------------------------|
C#|---------------------------------------------------------------------------|

************************************

| h   hammer-on
| p   pull-off

************************************

ADDITIONAL NOTE: If you watch live performances of this song, Ian plays the intro differently. I found the tabs out by listening to the track on the CD and tried to catch up as many notes as possible with one guitar line. The intro is actually played with two guitars (see on my tabs of the whole song)

            
            
Suggest correction
Creating personal tab
Creating personal tab
You can edit any tab online and save it as your Personal.

You can edit, replace or remove any tab part or add personal notes – all changes will be seen only by you.

Personal tabs can be accessed anytime from any device, even offline.
Learn more »
Give kudos to tab author, rate the tab!
1 2 3 4 5
comments
print report bad tab
guest
You may want to rate the tab now too:
select rating
Wanna post a correction for this tab? Suggest correction