Oops, an error
Loading. Please wait.

Cut The Curtains Bass Tab

version 1
version 1

Whole song

Interactive

6,602 views 15 this week
5 commentsread comments
1 2 3 4 5
accurate
x 8
add to favorites
launch autoscroll
font size
0
reset
guitar tuner
Tab Pro tools
  • play this tab
  • loop segment
  • change instrument
  • show fretboard
  • metronome
×
Best way to learn
"Cut The Curtains"
Autoscroll
slow
fast
+/-
esc
set tempo
stop
Contributor
Artist: Billy Talent
Song: Cut the Curtains

The bass in this song has distortion, also the solo requires you to
listen very carefully, as I am positive that this is 100% correct.
Contact me at zuka4077@hotmail.com if you have questions.

Intro:
G|------------------------------------|
D|------------------------------------|   X4
A|------------------------------------|
D|-0-0-7--0-0-7--0-7--5-5-7--5-3-3-5-3|
   
Verse:
G|---------|------|----|
D|---------|------|----|
A|---------|------|----|
D|-0--5-3-0|-5-3-0|-5-1|

G|------------------------------------|
D|------------------------------------|   
A|------------------------------------|
D|-0-0-7--0-0-7--0-7--5-5-7--5-3-3-5-3|
  

G|-----------------------------------|
D|-----------------------------------|   X4 
A|-----------------------------------| 
D|-0-0-7--0-0-7--0-7--5-5-5-5-3-3-3-3|
   

G|-------------------------------------|
D|-------------------------------------|
A|-------------------------------------|
D|-0-0-7--0-0-7--0-7--5-5-7--5-7-7-10-7|

Chorus:
G|------------------------------------|
D|------------------------------------|
A|------------------------------------|
D|-0-0-7--0-0-7--0-7--5-5-7--3-3-5-1-1|

G|-------------------------------------|
D|-------------------------------------|
A|-------------------------------------|
D|-0-0-7--0-0-7--0-7--5-5-7--5-7-7-10-7|

Post-Chorus:
G|-----------------------------|
D|-----------------------------|   X2
A|-0---5-7-5-3-----------------|
D|-------------7-5--5-5--3-3--1|

Verse:
G|---------|------|----|
D|---------|------|----|
A|---------|------|----|
D|-0--5-3-0|-5-3-0|-5-1|

G|------------------------------------|
D|------------------------------------|   
A|------------------------------------|
D|-0-0-7--0-0-7--0-7--5-5-7--5-3-3-5-3|
   

G|-----------------------------------|
D|-----------------------------------|   X4 
A|-----------------------------------| 
D|-0-0-7--0-0-7--0-7--5-5-5-5-3-3-3-3|
   

G|-------------------------------------|
D|-------------------------------------|
A|-------------------------------------|
D|-0-0-7--0-0-7--0-7--5-5-7--5-7-7-10-7|

Chorus:
G|------------------------------------|
D|------------------------------------|
A|------------------------------------|
D|-0-0-7--0-0-7--0-7--5-5-7--3-3-5-1-1|

G|-------------------------------------|
D|-------------------------------------|
A|-------------------------------------|
D|-0-0-7--0-0-7--0-7--5-5-7--5-7-7-10-7|

G|------------------------------------|
D|------------------------------------|
A|------------------------------------|
D|-0-0-7--0-0-7--0-7--5-5-7--3-3-5-1-1|

G|-------------------------------------|
D|-------------------------------------|
A|-------------------------------------|
D|-0-0-7--0-0-7--0-7--5-5-7--5-7-7-10-7|

Solo: (Listen VERY carefully for timing)
G|-----------------------------------------------|
D|-----------------------------------------------|
A|--------------5-3-1-3-----------5-5-5-5-5-5-5-5|
D|-0--5-3-0---0---------0--5-3-0-----------------|

Interlude:
G|------------------------------------|
D|------------------------------------|   X2
A|------------------------------------|
D|-0-0-7--0-0-7--0-7--5-5-7--5-3-3-5-3|
    

G|------------------------------------|
D|------------------------------------|   X2
A|------------------------------------|
D|-0-0-7--0-0-7--0-7--5-5-7--5-3-3-5-3|   (Fade out)
 

Chorus:
G|------------------------------------|
D|------------------------------------|
A|------------------------------------|
D|-0-0-7--0-0-7--0-7--5-5-7--3-3-5-1-1|

G|-------------------------------------|
D|-------------------------------------|
A|-------------------------------------|
D|-0-0-7--0-0-7--0-7--5-5-7--5-7-7-10-7|

G|------------------------------------|
D|------------------------------------|
A|------------------------------------|
D|-0-0-7--0-0-7--0-7--5-5-7--3-3-5-1-1|

G|-------------------------------------|
D|-------------------------------------|
A|-------------------------------------|
D|-0-0-7--0-0-7--0-7--5-5-7--5-7-7-10-7|

Post-Chorus:
G|-----------------------------|
D|-----------------------------|   X4
A|-0---5-7-5-3-----------------|
D|-------------7-5--5-5--3-3--1|

Outro: (Listen for timing, compare with Post-Chorus)
G|------------|
D|------------|
A|------------|
D|-5-5--3-3--1|








comments
print report bad tab
5 comments total. Showing first comments.
0 reply
shoebox_of_lies wrote on November 24 2005, 02:18 pm

Looks awesome. Billy Talent's awesome, but god damn it they need to come out with that new album soon!

0 reply
punkbassist19 wrote on July 23 2006, 01:29 pm

Great tab, doesn't sound like the bass is muted to me.

0 reply
Masterbasser36 wrote on August 1 2006, 02:34 am

I think theres another way to play the intro...

I want to post or [tab]
guest
You may want to rate the tab now too:
select rating
Please do not post tabs as comments. Select "correction" instead!