Oops, an error
Loading. Please wait.

Cut The Curtains Tab

version 3
version 3

Whole song

Interactive

32,849 views 18 this week
18 commentsread comments
1 2 3 4 5
excellent!
x 28
add to favorites
launch autoscroll
font size
0
reset
how to read this tab
guitar tuner
Autoscroll
slow
fast
+/-
esc
set tempo
stop
Help us to improve Ultimate-Guitar.com Take our survey!
×
Artist:Billy Talent
Song:Cut the curtains
CD VERSION 2003
Tabbed by:Stephane Lam
e-mail:stelam@gmail.com


I've been searching for Cut the curtains tabs on the internet, but 
the ones I found were not so great. So I tabbed it myself. This is
my 3rd time tabbing a song, so go easy on me :P. If you like it,
please vote :). Or leave a comment if you found any error or if 
you just want to say anything.

I think it sounds 99% correct. :D The slides may be a bit tricky
but just listen to the song and you'll get it.


P.S. I think there are many versions of this song on the internet.
I used the version on their album.

TUNING : DROP D


\ = slide down
/ = slide up
* = palm mute
~ = vibrato
b = bend
h = hammeron
10 means 10, not one and zero



E|------------------------------------------------|
A|------------------------------------------------|
D|------------------------------------------------|  Repeat 4 times
G|/7--00-7--00-7--0-7-55-7\3-33-3/7-33------------|	   
B|/7--00-7--00-7--0-7-55-7\3-33-3/7-33------------|
D|/7--00-7--00-7--0-7-55-7\3-33-3/7-33------------|
      **    **    *   **     

My girl, you're so hot when you walk you melt snow...
E|------------------------------------------------|
A|------------------------------------------------|
D|------------------------------------------------|  Repeat once
G|0---5--3--0---5--3--0---5--1--------------------|
B|0---5--3--0---5--3--0---5--1--------------------|
D|0---5--3--0---5--3--0---5--1--------------------|

our souls...
E|------------------------------------------------|
A|------------------------------------------------|
D|------------------------------------------------|  Repeat once
G|/7--00-7--00-7--0-7-55-7\3-33-3/7-33------------|	   
B|/7--00-7--00-7--0-7-55-7\3-33-3/7-33------------|
D|/7--00-7--00-7--0-7-55-7\3-33-3/7-33------------|
      **    **    *   **     

So let's see, we've got five bucks between you and me...
E|------------------------------------------------|
A|------------------------------------------------|
D|------------------------------------------------|  Repeat twice
G|00-7--00-7--0-7-5555--3333/---------------------|
B|00-7--00-7--0-7-5555--3333/---------------------|
D|00-7--00-7--0-7-5555--3333/---------------------|
  ** *  ** *  * * ****  ****

clean... So cleared...
E|------------------------------------------------|
A|------------------------------------------------|
D|------------------------------------------------|  Repeat once
G|00-7--00-7--0-7-5555--3333----------------------|
B|00-7--00-7--0-7-5555--3333----------------------|
D|00-7--00-7--0-7-5555--3333----------------------|
  ** *  ** *  * * ***

are we...
E|------------------------------------------------|
A|------------------------------------------------|
D|------------------------------------------------|  Repeat once
G|00-7--00-7--0-7--55--3--5--77--10-7-------------|
B|00-7--00-7--0-7--55--3--5--77--10-7-------------|
D|00-7--00-7--0-7--55--3--5--77--10-7-------------|


Cut the curtains, the actors have gone home...
E|------------------------------------------------|
A|------------------------------------------------|   --|
D|------------------------------------------------|	|	
G|00-7--00-7--0-7--55/9---33/8--1-1/--------------|	|
B|00-7--00-7--0-7--55/9---33/8--1-1/--------------|	|
D|00-7--00-7--0-7--55/9---33/8--1-1/--------------|	|
							|
							|Repeat those twice
E|------------------------------------------------|	|
A|------------------------------------------------|	|
D|------------------------------------------------|  	|
G|00-7--00-7--0-7--55--3--5--77--10-7-------------|	|
B|00-7--00-7--0-7--55--3--5--77--10-7-------------|   --|
D|00-7--00-7--0-7--55--3--5--77--10-7-------------|


E|------------------------------------------------|
A|--------------------6------4----3---------------|
D|---7h9-7----------------------------------------|  Repeat twice
G|0--------10-7-5-5-5----3-3----1-----------------|
B|0---------------5-5----3-3----1-----------------|
D|0---------------5-5----3-3----1-----------------|


Now here, seems our wax wings have melted away...
E|------------------------------------------------|
A|------------------------------------------------|
D|------------------------------------------------|  Repeat once
G|0---5--3--0---5--3--0---5--1--------------------|
B|0---5--3--0---5--3--0---5--1--------------------|
D|0---5--3--0---5--3--0---5--1--------------------|

away...
E|------------------------------------------------|
A|------------------------------------------------|
D|------------------------------------------------|  Repeat once
G|/7--00-7--00-7--0-7-55-7\3-33-3/7-33------------|	   
B|/7--00-7--00-7--0-7-55-7\3-33-3/7-33------------|
D|/7--00-7--00-7--0-7-55-7\3-33-3/7-33------------|
      **    **    *   **     

So don't be, a gray cloud when there's none in the sky
E|------------------------------------------------|
A|------------------------------------------------|
D|------------------------------------------------|  Repeat twice
G|00-7--00-7--0-7-5555--3333/---------------------|
B|00-7--00-7--0-7-5555--3333/---------------------|
D|00-7--00-7--0-7-5555--3333/---------------------|
  ** *  ** *  * * ****  ****

Fiiind... At least we...
E|------------------------------------------------|
A|------------------------------------------------|
D|------------------------------------------------|  Repeat once
G|00-7--00-7--0-7-5555--3333----------------------|
B|00-7--00-7--0-7-5555--3333----------------------|
D|00-7--00-7--0-7-5555--3333----------------------|
  ** *  ** *  * * ***

Try...
E|------------------------------------------------|
A|------------------------------------------------|
D|------------------------------------------------|  Repeat once
G|00-7--00-7--0-7--55--3--5--77--10-7-------------|
B|00-7--00-7--0-7--55--3--5--77--10-7-------------|
D|00-7--00-7--0-7--55--3--5--77--10-7-------------|


Cut the curtains, the actors have gone home
E|------------------------------------------------|
A|------------------------------------------------|   --|
D|------------------------------------------------|	|	
G|00-7--00-7--0-7--55/9---33/8--1-1/--------------|	|
B|00-7--00-7--0-7--55/9---33/8--1-1/--------------|	|
D|00-7--00-7--0-7--55/9---33/8--1-1/--------------|	|
							|
							|Repeat those 4 times
E|------------------------------------------------|	|
A|------------------------------------------------|	|
D|------------------------------------------------|  	|
G|00-7--00-7--0-7--55--3--5--77--10-7-------------|	|
B|00-7--00-7--0-7--55--3--5--77--10-7-------------|   --|
D|00-7--00-7--0-7--55--3--5--77--10-7-------------|




-SOLO-

Fall...
E|------------------------------------------------|
A|-------10---------------------------------------|
D|7\2/10----10-7---7-9-9b--9-7-5-7~ ---------7---7|
G|---------------7-------------------5h6h7-0--7-7-|
B|---------------------------------------------8--|
D|------------------------------------------------|


E|------------------------------------------------|
A|------------------------------------------------|
D|9-9b--9-7-5-7~ ---------------------------------|
G|---------------5h6h7-5--3-3--2--3-5-3-1-2--8-5/7|
B|------------------------------------------------|
D|------------------------------------------------|

------


There is no doubt, you throw your inbox out
E|------------------------------------------------|
A|------------------------------------------------|
D|------------------------------------------------|  Repeat twice
G|/7--00-7--00-7--0-7-55-7\3-33-3/7-33------------|	   
B|/7--00-7--00-7--0-7-55-7\3-33-3/7-33------------|
D|/7--00-7--00-7--0-7-55-7\3-33-3/7-33------------|
      **    **    *   **     

There is no doubt, you throw your inbox out
E|------------------------------------------------|
A|------------------------------------------------|
D|------------------------------------------------|  Slowly decrease power (volume) repeat 6 times
G|00-7--00-7--0-7--55-7\3-33-3/7-3-3/7------------|
B|00-7--00-7--0-7--55-7\3-33-3/7-3-3/7------------|
D|00-7--00-7--0-7--55-7\3-33-3/7-3-3/7------------|
  ** *  ** *  * *  ** *** ** *** * ***

Cut the curtains, the actors have gone home
E|------------------------------------------------|
A|------------------------------------------------|   --|
D|------------------------------------------------|	|	
G|00-7--00-7--0-7--55/9---33/8--1-1/--------------|	|
B|00-7--00-7--0-7--55/9---33/8--1-1/--------------|	|
D|00-7--00-7--0-7--55/9---33/8--1-1/--------------|	|
							|
							|Repeat those 4 times
E|------------------------------------------------|	|
A|------------------------------------------------|	|
D|------------------------------------------------|  	|
G|00-7--00-7--0-7--55--3--5--77--10-7-------------|	|
B|00-7--00-7--0-7--55--3--5--77--10-7-------------|   --|
D|00-7--00-7--0-7--55--3--5--77--10-7-------------|


to fold...
E|------------------------------------------------|
A|--------------------6------4----3---------------|
D|---7h9-7----------------------------------------|  Repeat 4 times
G|0--------10-7-5-5-5----3-3----1-----------------|
B|0---------------5-5----3-3----1-----------------|
D|0---------------5-5----3-3----1-----------------|


We don't have no time to fold...
E|------------------------------------------------|
A|6--6-5-6-5-6-5-----6------4----3----------------|
D|------------------------------------------------|  Repeat 3 times
G|0--------------5-5----3-3----1------------------|
B|0--------------5-5----3-3----1------------------|
D|0--------------5-5----3-3----1------------------|


We don't have no time to fold.
E|------------------------------------------------|
A|6--6-5-6-5-6-5-7b-7b-7b7b7b7b-------------------|
D|---------------7b-7b-7b7b7b7b-------------------|  Repeat once
G|0--------------7b-7b-7b7b7b7b-------------------|
B|0-----------------------------------------------|
D|0-----------------------------------------------|
                (slowly bend up)



End.


That's it, hope you have fun playing it :)  Billy talent rocks!
Suggest correction
comments
print report bad tab
18 comments total. Showing first comments.
+1 reply
fruitlaps 30 wrote on September 10 2004, 12:00 am

Awesome... but the last part sounds a bit weird

+4 reply
Sk8a4life132 10 wrote on December 4 2005, 02:40 pm

purty good but u labeled the strings all wrong
lol

+1 reply
Josher.K 119 wrote on May 5 2006, 02:15 pm

Nice... I haven't even played it yet and i know it's gonna sound nice bcuz i played the song and followed along with my eyes :P Good job!

guest
You may want to rate the tab now too:
select rating
Wanna post a correction for this tab? Suggest correction