Oops, an error
Loading. Please wait.

Dead Silence Bass Tab

version 1
version 1

Whole song

Interactive

4,453 views 3 this week
1 commentread comment
1 2 3 4 5
x 4
add to favorites
launch autoscroll
font size
0
reset
guitar tuner
Autoscroll
slow
fast
+/-
esc
set tempo
stop
Help us to improve Ultimate-Guitar.com Take our survey!
×
Author
Difficulty
Tuning
novice
D A D G B E
This is my bass tab to Dead Silence by Billy Talent.
The song is typical Drop D. Some parts were not easy to hear, so there could be mistakes 
in the second bridge and in the outro, the rest should be correct.
Have fun with this song and don't forget to rate! ;)

Intro (0:09)
G|----------------|----------------|----------------|----------------|
D|----------------|----------------|----------------|----------------|
A|----------------|----------------|----------------|----------------|
D|0~~~~~~~~~~~~~~~|~~~~~~~~~~~~~~~~|~~~~~~~~~~~~~~~~|0-000-000-000-0-|
  F                F                F                E SSE SSE SSE E

Verse 1
G|----------------|----------------|----------------|----------------|
D|----------------|----------------|----------------|----------------|
A|5~~~~~~~3~~~~~~~|4~~~~~~~5~~~~~~~|----------------|----------------|
D|----------------|----------------|5~~~~~~~3~~~~~~~|2~~~~~~~7~~~~~~~|
  H       H        H       H        H       H        H       H

G|----------------|----------------|----------------|----------------|
D|----------------|----------------|5~~~~~~~3~~~~~~~|2~~~~~~~--------|
A|5~~~~~~~3~~~~~~~|4~~~~~~~5~~~~~~~|----------------|----------------|
D|----------------|----------------|----------------|--------7~~~~~~~|
  H       H        H       H        H       H        H       H

Chorus
G|----------------|----------------|----------------|----------------|
D|----------------|----------------|----------------|----------------|
A|----------------|----------------|----------------|----------------|
D|5-555-555-555-55|0-000-000-000-00|8-888-888-888-88|3-333-333-333-33|
  E SSE SSE SSE SS E SSE SSE SSE SS E SSE SSE SSE SS E SSE SSE SSE SS

G|----------------|----------------|----------------|----------------|
D|----------------|----------------|----------------|----------------|
A|----------------|----------------|----------------|----------------|
D|5-555-555-555-55|0-000-000-000-00|8-888-888-888-88|7~~~7~~~7~~~~~~~|
  E SSE SSE SSE SS E SSE SSE SSE SS E SSE SSE SSE SS Q   Q   H

Verse 2 (2x)
G|----------------|----------------|----------------|----------------|
D|----------------|----------------|----------------|----------------|
A|55555-0-33333-0-|44444-0-55555-0-|----------------|----------------|
D|----------------|----------------|55555-0-33333-0-|77777-0-77777-0-|
  SSSSE E SSSSE E  SSSSE E SSSSE E  SSSSE E SSSSE E  SSSSE E SSSSE E

G|----------------|----------------|----------------|----------------|
D|----------------|----------------|55555-0-33333-0-|22222-0---------|
A|55555-0-33333-3-|44444-0-55555-0-|----------------|----------------|
D|----------------|----------------|----------------|--------77777-0-|
  SSSSE E SSSSE E  SSSSE E SSSSE E  SSSSE E SSSSE E  SSSSE E SSSSE E

Chorus (2x)
Verse 3 ('Hey'-Part) (same as Verse 2 but only one time)

Bridge
G|----------------|----------------|----------------|----------------|
D|----------------|----------------|----------------|----------------|
A|----------------|----------------|----------------|----------------|
D|5-555-555-555-55|0-000-000-000-00|8-888-888-888-88|3-333-333-333-33|
  E SSE SSE SSE SS E SSE SSE SSE SS E SSE SSE SSE SS E SSE SSE SSE SS

G|----------------|----------------|----------------|----------------|
D|----------------|----------------|----------------|7~~~5~~~3~~~2~~~|
A|----------------|----------------|----------------|----------------|
D|5-555-555-555-55|0-000-000-000-00|8-888-888-888-88|----------------|
  E SSE SSE SSE SS E SSE SSE SSE SS E SSE SSE SSE SS Q   Q   Q   Q

Verse 3
G|----------------|----------------|----------------|----------------|
D|----------------|----------------|----------------|----------------|
A|5-555-555-555-55|----------------|----------------|----------------|
D|----------------|7-777-777-777-77|8-888-888-888-88|3-333-333-333-33|
  E SSE SSE SSE SS E SSE SSE SSE SS E SSE SSE SSE SS E SSE SSE SSE SS

G|----------------|----------------|----------------|----------------|
D|----------------|----------------|----------------|----------------|
A|----------------|----------------|----------------|----------------|
D|5-555-555-555-55|0-000-000-000-00|8-888-888-888-88|7~~~7~~~7~~~~~~~|
  E SSE SSE SSE SS E SSE SSE SSE SS E SSE SSE SSE SS Q   Q   H

G|----------------|----------------|----------------|----------------|
D|----------------|----------------|----------------|----------------|
A|5-555-555-555-55|----------------|----------------|----------------|
D|----------------|7-777-777-777-77|8-888-888-888-88|3-333-333-333-33|
  E SSE SSE SSE SS E SSE SSE SSE SS E SSE SSE SSE SS E SSE SSE SSE SS

G|----------------|----------------|----------------|----------------|
D|----------------|----------------|----------------|----------------|
A|----------------|----------------|----------------|----------------|
D|5-555-555-555-55|0-000-000-000-00|8-888-888-888-88|7~~~7~~~7~~~7~~~|
  E SSE SSE SSE SS E SSE SSE SSE SS E SSE SSE SSE SS Q   Q   Q   Q

Bridge 2 (I'm not sure for this part, sounds like this:)
G|----------------|----------------|----------------|----------------|
D|8~~~8~~~8~~~8-75|3~~~3~~~3~~~3~~~|----------------|3~~~3~~~3~~~3~~~|
A|----------------|----------------|--------------35|----------------| 2x
D|----------------|----------------|8~~~8~~~8~~~8---|----------------|
  Q   Q   Q   E SS Q   Q   Q   Q    Q   Q   Q   E SS Q   Q   Q   Q

G|----------------|----------------|----------------|----------------|
D|8~~~8~~~8~~~8~~~|----------------|8~~~8~~~8~~~8~~~|7~~~7~~~7~~~~~--|
A|----------------|----------------|----------------|----------------|
D|----------------|3~~~3~~~3~~~3~~~|----------------|-------------12\|
  Q   Q   Q   Q    Q   Q   Q   Q    Q   Q   Q   Q    Q   Q   Q.    E

Chorus (2x)

Outro (4x - Fades out at the end of the third time)
G|----------------|----------------|----------------|----------------|
D|------------5-55|--------7-77----|----------------|----------------|
A|--------5-55----|5-558-88----5-55|--------5-557-77|8-883-33--------|
D|----8-88--------|----------------|----8-88--------|--------7-773-33|
  Q   E SSE SSE SS E SSE SSE SSE SS Q   E SSE SSE SS E SSE SSE SSE SS

G|----------------|----------------|----------------|----------------|
D|------------5-55|--------7-77----|----------------|----------------|
A|--------5-55----|5-558-88----5-55|--------5-55----|----------------|
D|----8-88--------|----------------|----8-88----8-88|7~~~7~~~7~~~7~~~|
  Q   E SSE SSE SS E SSE SSE SSE SS Q   E SSE SSE SS Q   Q   Q   Q


F = Full note
H = Half note
Q = Quarter note
E = Eighth note
S = Sixteenth note
. = makes the note a half longer
\ = Slide up
/ = Slide down
h = Hammer-on
p = Pull-off
b = Bending
X = Mute note
Suggest correction
comments
print report bad tab
1 comment total.
0 reply
TheMasterofP 663 Sep 28, 2012 01:53 PM

Okay, I have to correct my Outro, but now I'm sure, that this is correct:
G|----------------|----------------|----------------|----------------|
D|------------5-55|--------7-77----|----------------|----------------|
A|--------5-55----|5-558-88----5-55|----3-335-557-77|8-883-33--------|
D|5-558-88--------|----------------|8-88------------|--------7-773-33|
E SSE SSE SSE SS E SSE SSE SSE SS E SSE SSE SSE SS E SSE SSE SSE SS

G|----------------|----------------|----------------|----------------|
D|------------5-55|--------7-77----|----------------|----------------|
A|--------5-55----|5-558-88----5-55|----3-335-55----|----------------|
D|5-558-88--------|----------------|8-88--------8-88|7~~~7~~~7~~~7~~~|
E SSE SSE SSE SS E SSE SSE SSE SS E SSE SSE SSE SS Q Q Q Q

Don't forget to rate and don't stop to listen BT! :D

guest
You may want to rate the tab now too:
select rating
Wanna post a correction for this tab? Suggest correction