Oops, an error
Loading. Please wait.

Dead Silence Tab

version 1
version 1

Whole song

Interactive

16,605 views 60 this week
no commentswrite comment
1 2 3 4 5
x 5
add to favorites
launch autoscroll
font size
0
reset
how to read this tab
guitar tuner
Autoscroll
slow
fast
+/-
esc
set tempo
stop
Help us to improve Ultimate-Guitar.com Take our survey!
×
Difficulty
Tuning
intermediate
D A D G B E
-------------------------------------------------------------------------------
              Dead Silence - Billy Talent
-------------------------------------------------------------------------------
Tabbed by:Ed
E-mail:Exogenian@gmail.com

Tuning:Drop D


Intro:
e|-------------------------------------------------------------------------------|
B|-------------------------------------------------------------------------------|
G|---7---7---10---9---9--12---12---10---12----12----12-14-15-14-14-12-10-9-10-9--|
D|-7---7--10---10----11----11---11---11----12----12------------------------------|
A|-------------------------------------------------------------------------------|
D|-------------------------------------------------------------------------------|

e|-----------------------------------------------------------------------------------|
B|-3-3-3-3-3-------------------------------------------------------------------------|
G|-2-2-2-2-2-------------------------------------------------------------------------|
D|-0-0-0-0-0-------------------------------------------------------------------------|
A|-0-0-0-0-0-------------------------------------------------------------------------|
D|-0-0-0-0-0-------------------------------------------------------------------------|

Verse:
e|-------------------------------------5------------------------------|
B|-6------5-----5-----6----11----10----5------------------------------|
G|-x------x-----x-----x-----x------x---6------------------------------|
D|-7------5-----5-----7----12----10----7------------------------------|
A|-5------3-----4-----5----10-----8----0------------------------------|
D|--------------------------------------------------------------------|x2

Chorus:
e|-----------------------------------------------------------------------------|
B|-----------------------------------------------------------------------------|
G|-----------------------------------------------------------------------------|
D|-5-7--8-----8-5-7----5--7--8---7-5-3-----------------------------------------|
A|-------5----------0-----5--7--8--------3-------------------------------------|
D|-------5----------0-----5--7--8--------3-------------------------------------|

Repeat but end with this
e|-0----5--5----------------------------------------------------------------------|
B|-0----5--5----------------------------------------------------------------------|
G|-0----7--6----------------------------------------------------------------------|
D|-0----7--7----------------------------------------------------------------------|
A|-0----0--0----------------------------------------------------------------------|
D|-0------------------------------------------------------------------------------|

Verse:
e|---------------------------------------------------555555--------------|
B|-6666665555555555556666661111111111111101010101010-555555--------------|
G|-xxxxxxxxxxxxxxxxxxxxxxxxxxxxxxxxxxxxxxxxxxxxxxx---777766--------------|
D|-777777555555555555777777121212121212101010101010--777777--------------|
A|-5555553333334444445555551010101010108-8-8-8-8-8---000000--------------|
D|-000000----------------------------------------------------------------|

Verse changes a bit into this.
e|-----------------------------------------------------------------------------|
B|-----------------------------------------------------------------------------|
G|-----------------------------------------------------------------------------|
D|-77777----555555555---77777-55555--33333--121212121111-----------------------|
A|-555555---333334444---55555-55555--33333--7-7--7-7-7-7-----------------------|
D|-000000---------------------55555--33333--7-7--7-7-7-7-----------------------|

 Back into chorus

Solo:
e|-------------------------------------------------------------------------|
B|-------------------------------------------------------------------------|
G|-77777777777-101010101010101010-99999999999-12121212121212-10101010101010|
D|-------------------------------------------------------------------------|
A|-------------------------------------------------------------------------|
D|-------------------------------------------------------------------------|

e|--------------------------------------------------------------------------|
B|--------------------------------------------------------------------------|
G|-12121212121212-141414-1515151515-1414141414-121212-1010-99999-1010-999---|
D|--------------------------------------------------------------------------|
A|--------------------------------------------------------------------------|
D|--------------------------------------------------------------------------|x2


Bridge
e|---------------------------------------------------------------------|
B|---------------------------------------------------------------------|
G|---------------------------------------------------------------------|
D|-0-3-5-0-5-8-7-3-0------------0-3-8-7--------------------------------|
A|------------------------5-7-8-----------8----------------------------|
D|--------------------------------------------10-----------------------|x2

then
e|-----------------------------------------------------------------17~---|
B|-----------------------------------------------------------------------|
G|--------------------------------------------10---10-12-12b-10-12-14----|
D|-----------------------------10---10-12---12---------------------------|
A|-5-7-8-7-8-10-8-10-12----12--------------------------------------------|
D|-----------------------------------------------------------------------|

Breakdown:
e|--------------------------------------------------5555--|
B|--------------------------------------------------5555--|
G|--------------------------------------------------7766--|
D|-000000-777777-888888-333333-888888-000000-888888-7777--|
A|-000000-777777-888888-333333-555555-000000-888888-0000--|
D|-000000-777777-888888-333333-555555-000000-888888-------|


Post breakdown:
e|-------|
B|-------|
G|-5--5--|
D|-3--1--|
A|-1--1--|
D|----1--|x8 Then:

e|-55--------------------------------------------------------------------|
B|-75--------------------------------------------------------------------|
G|-76--------------------------------------------------------------------|
D|-77--------------------------------------------------------------------|
A|-00--------------------------------------------------------------------|
D|-----------------------------------------------------------------------|
Suggest correction
comments
print report bad tab
guest
You may want to rate the tab now too:
select rating
Wanna post a correction for this tab? Suggest correction