Oops, an error
Loading. Please wait.

Definition Of Destiny Bass Tab

version 1
version 1

Whole song

Interactive

4,433 views 1 this week
no commentswrite comment
1 2 3 4 5
please rate
add to favorites
launch autoscroll
font size
0
reset
guitar tuner
Tab Pro tools
  • play this tab
  • loop segment
  • change instrument
  • show fretboard
  • metronome
×
Best way to learn
"Definition Of Destiny"
Autoscroll
slow
fast
+/-
esc
set tempo
stop
Contributor
Difficulty
Tuning
intermediate
D A D G B E
tabbed by tony d

Intro:1x
G------------------------------------------|
D------------------------------------------|
A----------------------------------0(ring)-|
D-0(ring)----5(ring)----3(ring)------------|

Post Chorus:4x
G-----------------------------|
D-----------------------------|
A-------------------------8-5-|
D-00-3-7-0-5-8--0-7-10-0------|

Verse Intro:1x
G-------------------------------------------------------------------------------|
D-------------------------------------------------------------------------------|
A-5(ring)---3(ring)---0(ring)---1(ring)-----------------------0(ring)---0(ring)-|
D---------------------------------------3-5(ring)---3(ring)---------------------|

Verse:1x
G---------------------------------------------------------|
D---------------------------------------------------------|
A-55-5-5-33-3-3-00-0-0-11-1-1---------------00-0-0-00-0-0-|
D-----------------------------55-5-5-33-3-3---------------|

Pre-Chorus:2x
G------------------------|
D----------------3-------|
A-----------11111-555555-|
D-3-0-2--3---------------|

Chorus:2x
G-------------------------------------|
D-------------------------------------|
A-----------------------11111---------|
D-3-0-77777777-33333333-------3-00000-|

Post Chorus:4x
Verse:2x
Pre-Chorus:2x
Chorus:4x

After 2nd Chorus:1x
G-------------------|
D---------88888-----|
A-11111111-----88-5-|
D-------------------|

Bridge:1x
G------------------------------------------------------------------------|
D------------------------------------------------------------------------| Play 2x
A-------------------55-5-55-5-55-5-55------------------------------------|
D-77-7-77-7-77-7-77------------------55-5-55-5-55-5-55-33-3-33-3-33-3-33-|

G---------------------------------------------------------------------|
D---------------------------------------------------------------------| Play 2x
A-9-10-------------9-10-55555555555-9-10-------------9-10-------------|
D------77777777777-----------------------55555555555------33333333333-|

Pre-Chorus:2x
Chorus:4x
Post Chorus:4x
comments
We did not receive enough feedback on this tab! Please rate:
print report bad tab
1 2 3 4 5
I want to post or [tab]
guest
You may want to rate the tab now too:
select rating
Please do not post tabs as comments. Select "correction" instead!