Oops, an error
Loading. Please wait.

Definition Of Destiny Tab

version 1
version 1

Whole song

Interactive

22,368 views 21 this week
1 commentread comment
1 2 3 4 5
accurate
x 17
add to favorites
launch autoscroll
font size
0
reset
how to read this tab
guitar tuner
Autoscroll
slow
fast
+/-
esc
set tempo
stop
Help us to improve Ultimate-Guitar.com Take our survey!
×
Author
Tuning
D A D G B E
-------------------------------------------------------------------------------
                         Definition Of Destiny - Billy Talent
-------------------------------------------------------------------------------
Tabbed by:PT-E
Email:

(8.19.09) i edited some parts. this tab is from BT3 deluxe edition.

Tuning: Drop D

 Intro 2x
e|-----------------------------------------------------------------------------------|
B|-----------------------------------------------------------------------------------|
G|---------9-----9---------7------10--------------10------10-------------9------9----|
D|-----7-----7---------7-----7---------------8-------8--------------8------8---------|
A|-5-5---5-----5----5-5--5-----5-------10-10---10------10-----10-10---10-----10------|
D|-----------------------------------------------------------------------------------|

e|-------------------------------------------------------------------------|---------|
B|-------------------------------------------------------------------------|---------|
G|---------9-----9----------7-----7----------7-----7----------6-----6------|---6-----|
D|-----7-----7----------7-----7----------5-----5----------5-----5----------|---5-----|
A|-8-8---8-----8----8-8---8-----8----0-0---0-----0----0-0---0-----0--------|---0-----|
D|-------------------------------------------------------------------------|---------|

  4x
e|---------------------------------------------------------------------------|
B|---------------------------------------------------------------------------|
G|---------------------------------------------------------------------------|
D|-0--0--3/7-----5/8-----7/10-----15\12--------------------------------------|
A|-0--0--3/7-----5/8-----7/10-----15\12--------------------------------------|
D|-0--0--3/7--0--5/8--0--7/10--0--15\12--------------------------------------|


 verse 2x
e|---------------------------------------------------------------------------|
B|---------------------------------------------------------------------------|
G|---------5-----5----------5-----5----------5-----5-----------5-----10------|
D|-----3-----3----------2-----2----------3-----3----------3------3-----------|
A|-5-5---5-----5----3-3---3-----3----0-0---0-----0----1-1---1------1---------|
D|---------------------------------------------------------------------------|

e|---------------------------------------------------------------------------------------|
B|---------------------------------------------------------------------------------------|
G|------------10------10----------10-----10----------7-----7----------6-----6----------6-|
D|-------8-------8------------7------8-----------5-----5----------5-----5----------5-----|
A|-10-10---10------10-----8-8---8------7-----0-0---0-----0----0-0---0-----0----0-0---0---|
D|---------------------------------------------------------------------------------------|


 Pre-Chorus 2X
e|---------------------------------------------------------------------------|
B|---------------------------------------------------------------------------|
G|---------------------------------------------------------------------------|
D|----------------------------------8-8-8-3-0-0-0-0-3-3-0--------------------|
A|-5-5-5----4--4--7-7-5--8-8-8-7-5--8-8-8-3-0-0-0-0-3-3-0--------------------|
D|-3-3-3-0--2--2--5-5-3--7-7-7-7-5--8-8-8-3-0-0-0-0-3-3-0--------------------|


 Chorus 2x
e|---------------------------------------------------------------------------|
B|---------------------------------------------------------------------------|
G|---------------------------------------------------------------------------|
D|-1111111111111111-7-7-7-7-7-7-7-7--12121212121212-1212121212121212--3-3-0--|
A|-7-7-7-7-7-7-7-7--3-3-3-3-3-3-3-3--8-8-8-8-8-8-8--0-0-0-0-0-0-0-0---3-3-0--|
D|-7-7-7-7-7-7-7-7--3-3-3-3-3-3-3-3--8-8-8-8-8-8-8--0-0-0-0-0-0-0-0---3-3-0--|


 4x
e|---------------------------------------------------------------------------|
B|---------------------------------------------------------------------------|
G|---------------------------------------------------------------------------|
D|-0--0--3/7-----5/8-----7/10-----15\12--------------------------------------|
A|-0--0--3/7-----5/8-----7/10-----15\12--------------------------------------|
D|-0--0--3/7--0--5/8--0--7/10--0--15\12--------------------------------------|


  verse 2x
e|---------------------------------------------------------------------------|
B|---------------------------------------------------------------------------|
G|---------5-----5----------5-----5----------5-----5-----------5-----10------|
D|-----3-----3----------2-----2----------3-----3----------3------3-----------|
A|-5-5---5-----5----3-3---3-----3----0-0---0-----0----1-1---1------1---------|
D|---------------------------------------------------------------------------|

e|---------------------------------------------------------------------------------------|
B|---------------------------------------------------------------------------------------|
G|------------10------10----------10-----10----------7-----7----------6-----6----------6-|
D|-------8-------8------------7------8-----------5-----5----------5-----5----------5-----|
A|-10-10---10------10-----8-8---8------7-----0-0---0-----0----0-0---0-----0----0-0---0---|
D|---------------------------------------------------------------------------------------|


Pre-Chorus 2X
e|---------------------------------------------------------------------------|
B|---------------------------------------------------------------------------|
G|---------------------------------------------------------------------------|
D|----------------------------------8-8-8-3-0-0-0-0-3-3-0--------------------|
A|-5-5-5----4--4--7-7-5--8-8-8-7-5--8-8-8-3-0-0-0-0-3-3-0--------------------|
D|-3-3-3-0--2--2--5-5-3--7-7-7-7-5--8-8-8-3-0-0-0-0-3-3-0--------------------|



Chorus 4x
e|---------------------------------------------------------------------------|
B|---------------------------------------------------------------------------|
G|---------------------------------------------------------------------------|
D|-1111111111111111-7-7-7-7-7-7-7-7--12121212121212-1212121212121212--3-3-0--|
A|-7-7-7-7-7-7-7-7--3-3-3-3-3-3-3-3--8-8-8-8-8-8-8--0-0-0-0-0-0-0-0---3-3-0--|
D|-7-7-7-7-7-7-7-7--3-3-3-3-3-3-3-3--8-8-8-8-8-8-8--0-0-0-0-0-0-0-0---3-3-0--|

e|-----------------------------------|
B|-----------------------------------|
G|-----------------------------------|
D|-1212121212121212121212121212------|
A|-8-8-8-8-8-8-8-8-8-8-8-8-8-8-------|
D|-8-8-8-8-8-8-8-8-8-8-8-8-8-8-------|


Bridge 
 2x
e|---------------------------------------------------------------------------|
B|---------------------------------------------------------------------------|
G|-7-7-7--7-7-7--6-6-6--6-6-6--9-9-9--9-9-9--7-7-7--7-7-7--------------------|
D|-5-5-5--5-5-5--5-5-5--5-5-5--7-7-7--7-7-7--7-7-7--7-7-7--------------------|
A|-0-0-0--0-0-0--0-0-0--0-0-0--5-5-5--5-5-5--5-5-5--5-5-5--------------------|
D|---------------------------------------------------------------------------|

e|---------------------------------------------------------------------------|
B|---------------------------------------------------------------------------|
G|-10-10-10--10-10-10---9--9--9---9--9--9---9-9-9--9-9-9--7-7-7--7-7-7-------|
D|-8--8--8---8--8--8----8--8--8---8--8--8---7-7-7--7-7-7--7-7-7--7-7-7-------|
A|-10-10-10--10-10-10---10-10-10--10-10-10--8-8-8--8-8-8--8-8-8--8-8-8-------|
D|---------------------------------------------------------------------------|


e|---------------------------------------------------------------------------|
B|---------------------------------------------------------------------------|
G|-7-7-7--7-7-7--6-6-6--6-6-6--9-9-9--9-9-9--7-7-7--7-7-7--------------------|
D|-5-5-5--5-5-5--5-5-5--5-5-5--7-7-7--7-7-7--7-7-7--7-7-7--------------------|
A|-0-0-0--0-0-0--0-0-0--0-0-0--5-5-5--5-5-5--5-5-5--5-5-5--------------------|
D|---------------------------------------------------------------------------|

e|---------------------------------------------------------------------------|
B|---------------------------------------------------------------------------|
G|---------------------------------------------------------------------------|
D|-8-8-8--8-8-8--8-8-8--8-8-8--7-7-7--7-7-7--7-7-7--7-7-7-7-0----------------|
A|-8-8-8--8-8-8--7-7-7--7-7-7--7-7-7--7-7-7--5-5-5--5-5-5-5-0----------------|
D|-5-5-5--5-5-5--5-5-5--5-5-5--3-3-3--3-3-3--3-3-3--3-3-3-3-0----------------|

Pre-chorus 2x

Chorus 4x

 4x
e|------------------------------------------|---------------------------------|
B|------------------------------------------|---------------------------------|
G|------------------------------------------|-------------7-------------------|
D|-0--0--3/7-----5/8-----7/10-----15\12-----|-------10-10-7-------------------|
A|-0--0--3/7-----5/8-----7/10-----15\12-----|-------8--8--5-------------------|
D|-0--0--3/7--0--5/8--0--7/10--0--15\12-----|-----0---------------------------|



| /  slide up
| \  slide down
| h  hammer-on
| p  pull-off
| ~  vibrato
| +  harmonic
| x  Mute note
===============================================================================
Suggest correction
What's this?
You can suggest a correction to this tab. Community and Mods will review your correction and vote to approve or reject it.
comments
print report bad tab
1 comment total.
0 reply
Ghefly 887 wrote on July 16 2011, 09:53 am

Fantastic tab, spot on! Pre-chorus initially sounds wrong but once you get the timing down you realise it's spot on.

Keep up the good work.

guest
You may want to rate the tab now too:
select rating
Please do not post tabs as comments. Select "correction" instead!