Oops, an error
Loading. Please wait.

Devil In A Midnight Mass Bass Tab

version 1
version 1
12,644 views 9 this week
3 commentsread comments
1 2 3 4 5
accurate
x 6
add to favorites
launch autoscroll
font size
0
reset
guitar tuner
Autoscroll
slow
fast
+/-
esc
set tempo
stop
Help us to improve Ultimate-Guitar.com Take our survey!
×
Author
Tuning
D A D G B E
Tuning: Drop-D
Tabbed by: Tony D(Temp144)

Update: Now that the single is offically released, I decided to tab
it also, but I can't keep two seperate pages on the same song, so here's
the old demo and the new album versions. Enjoy and Long Live Taborama!

Demo Version:
This is the 2nd new Billy Talent song that they put on myspace during Christmas.There 
a bit in this song and it's pretty dark compared to their older stuff, so i'm anticipating 
kick-ass album. I've listened to the song carefully and so it's probably the closest to perfect.

Intro:1x
G|---------------------|
D|---------------------|
A|-0-------0-1---------|
D|---3-0-5-----0-------|

Verse:4x
G|-----------------------|
D|------------------32---|
A|-0-------0-1--1-0------|
D|---3-0-5-----0---------|

Post Verse x2
G|---------------------3-------------------2---|
D|---------------0-3-5---------------0-3-5-----|
A|-5-55-55--1-11----------------0-00-----------|
D|----------------------5-55-55----------------|

Pre-Chorus x2                          Play After 2nd Time
G|-------------------------------------|----------------------------------|
D|-------------------------------------|----------------------------------|
A|--1(ring)---0(ring)------------------|--1(ring)---0(ring)--0--------0-1-|
D|--------------------0(ring)--3(ring)-|-----------------------3-0-5------|

Chorus x2
G|-------------------------------------------------------------------|
D|-------------------------------------------------------------------|
A|---------------------------------------------11111111-0-0------0-1-|
D|-00-00-0-00000--33-33-3-33333--55-55-5-55555--------------3-0-5----|

Post Chorus x1: play right after chorus
G|---------------------3-0---2-----0----------------------------|
D|-------------------------2---3-0---2--3-0---------------------|
A|-555-55-55---------------------------3---3-111111-0------0-10-|
D|------------3333-33-3-------------------------------3-0-5-----|

Verse x6
Post Verse x2
Pre-Chorus x2
Chorus x2
Post Chorus x1
Bridge x12: Just play the verse until the song ends


Album Version
This is the official proper album version of the song. This version has been dumbed-down 
it's still good. Just a few changes made from the demo, but nothing too different, so 
is to perfect now. Well, just try it and rate it and Long Live Taborama & Enjoy!

Intro:4x
G|-----------------------|
D|------------------32---|
A|-0-------0-1--1-0------|
D|---3-0-5-----0---------|

Verse:4x
G|--------------------------------|
D|--------------------------------|
A|-0-------0-1--------------------|
D|---3-0-5-----000--000--000--000-|

Pre-Chorus x3
G|------------------------------------------|
D|--------------------------------------3-2-|
A|-0-------0-3--1(ring)--0(ring)---1--0-----|
D|---3-0-5-----------------------0----------|

Chorus x1
G|------------------------------------------|---------------------|
D|------------------------------------------|---------------------|
A|------------------------------------------|-11111-0-0------0-1--|
D|-00-00-0-000--33-33-3-3333--55-55-5555555-|-----------3-0-5-----|

G|------------------------------------------------------------------------|
D|---------------------------5-0-5--3-0-3--2--2---------------------------|
A|-------------------------------------------3--33-0-1111-1-1--0-----0-1--|
D|-00-00-0-000--33-33-33-333------------------------------------3-0-5---0-|

Post Chorus: Play Intro 4x
Verse x2
Pre-Chorus x2
Chorus x1
Bridge x12: Just play the intro until the song ends
Suggest correction
What's this?
You can suggest a correction to this tab. Community and Mods will review your correction and vote to approve or reject it.
comments
print report bad tab
3 comments total.
0 reply
Green_day boy 173 wrote on September 1 2006, 12:13 pm

it blows

0 reply
temp144 1,121 wrote on September 2 2006, 07:43 pm

Why?

0 reply
billytalentdude 50 wrote on November 18 2006, 08:38 pm

It dosent blow, but it is really off in some parts, but you did good top figure out certain spots.

guest
You may want to rate the tab now too:
select rating
Please do not post tabs as comments. Select "correction" instead!