Oops, an error
Loading. Please wait.

Devil In A Midnight Mass Tab

version 1
version 1
21,070 views 1 this week
5 commentsread comments
1 2 3 4 5
accurate
x 8
add to favorites
launch autoscroll
font size
0
reset
how to read this tab
guitar tuner
Tab Pro tools
  • play this tab
  • loop segment
  • change instrument
  • show fretboard
  • metronome
Autoscroll
slow
fast
+/-
esc
set tempo
stop
Contributor
-------------------------------------------------------------------------------
   Devil In A Midnight Mass- Billy Talent
-------------------------------------------------------------------------------
Tabbed by:Andrew
Email:watch_me_die_under_flames@hotmail.com

Tuning: Dropped D (D A D G B e)


e|---------------------------------------------------------------------------|
B|---------------------------------------------------------------------------|
G|---------------------------------------------------------------------------|
D|---------------------------------------------------------------------------|
A|-----------5-----------------8----7------------------------5---------------|
D|--5--7--8-----0--8--0--7--0----0------0--7--3--0--5--7--8-----0--8--0--7---|


e|---------------------------------------------------------------------------|
B|---------------------------------------------------------------------------|
G|---------------------------------------------------------------------------|
D|---------------------------------------------------------------------------|
A|-----8----7----------------------------------------------------------------|
E|--0----0-------------------------------------------------------------------|

               

| /  slide up
| \  slide down
| h  hammer-on
| p  pull-off
| ~  vibrato
| +  harmonic
| x  Mute note
===============================================================================
comments
print report bad tab
5 comments total. Showing first comments.
0 reply
shoebox_of_lies wrote on June 19 2006, 12:40 pm

wow, just like all the other tabs say.

0 reply
BlackReaper123 wrote on August 3 2006, 07:00 am

dus any1 av it in standerd 4 god sake

0 reply
billytalentdude wrote on November 18 2006, 08:34 pm

Hey black reaper figure it out for urself because it is in drop d

I want to post or [tab]
guest
You may want to rate the tab now too:
select rating
Please do not post tabs as comments. Select "correction" instead!