Oops, an error
Loading. Please wait.

Devil In A Midnight Mass Tab

version 1
version 1
112,030 views 195 this week
25 commentsread comments
1 2 3 4 5
accurate
x 47
add to favorites
launch autoscroll
font size
0
reset
how to read this tab
guitar tuner
Tab Pro tools
  • play this tab
  • loop segment
  • change instrument
  • show fretboard
  • metronome
Autoscroll
slow
fast
+/-
esc
set tempo
stop
Contributor
-----------------------------------------------------------------------------
		   DEVIL IN A MIDNIGHT MASS - Billy Talent
-----------------------------------------------------------------------------
Tabbed by ... Mark M
Email     ... billytalentpunk0@hotmail.com


Tuning    ... Drop D Tuning (DADGBe)


NOTE: I did not include any of the hammer-ons or pull-offs in the main riff.


INTRO:

PART 1:

e|-------------------------------------------------------------------------|
B|-------------------------------------------------------------------------|
G|-------------------------------------------------------------------------|
D|-------------------------------------------------------------------------|
A|-----------5-----------------8-----7-------------------------------------|
D|--5--7--8-----0--8--0--7--0-----0-----0--7--3--0--5--7--8----------------|

PART 2:
                                                                         x5
e|-------------------------------------------------------------------------|
B|-------------------------------------------------------------------------|
G|-------------------------------------------------------------------------|
D|---------------------------------7--3--0--5--7--8------------------------|
A|--5-----------------8-----7------7--3--0--5--7--8------------------------|
D|-----0--8--0--7--0-----0-----0---7--3--0--5--7--8------------------------|


VERSE:
                                                                         x3
e|-------------------------------------------------------------------------|
B|-------------------------------------------------------------------------|
G|-------------------------------------------------------------------------|
D|-------------------------------------------------------------------------|
A|-------------------------------------------------------------------------|
D|----------------------------------------------------7--3--0--5--7--8--0--|

e|-------------------------------------------------------------------------|
B|-------------------------------------------------------------------------|
G|-------------------------------------------------------------------------|
D|-------------------------------------------------------------------------|
A|-------------------------------------------------------------------3-----|
D|----------------------------------------------------7--3--0--5--7--------|


PRE-CHORUS:

    H      H                                                             x2
e|--0------0---------------------------------------------------------------|
B|--6------5---------------------------------------------------------------|
G|--7------6---------------------------------------------------------------|
D|--8------7--------------------------------------7--3--0--5--7------------|
A|------------------5-----------------8-----7-----7--3--0--5--7--3---------|
D|---------------------0--8--0--7--0-----0-----0--7--3--0--5--7------------|

    H      H      H      H      H      H
e|--0------0------0------0------0------0----------7--3--0--5--7--8---------|
B|--6------5------3------3------6------5----------7--3--0--5--7--8---------|
G|--7------6------2------2------7------6----------7--3--0--5--7--8---------|
D|--8------7------0------3------8------7-----------------------------------|
A|----------------0------0-------------------------------------------------|
D|-------------------------------------------------------------------------|


CHORUS:

e|--5--5-5---5-5---5-5---5-5---5--|--5--5-5---5-5---5-5---5-5---5----------|
B|--6--6-6---6-6---6-6---6-6---6--|--5--5-5---5-5---5-5---5-5---5----------|
G|--7--7-7---7-7---7-7---7-7---7--|--5--5-5---5-5---5-5---5-5---5----------|
D|--0--0-0---0-0---0-0---0-0---0--|--3--3-3---3-3---3-3---3-3---3----------|
A|--0--0-0---0-0---0-0---0-0---0--|--3--3-3---3-3---3-3---3-3---3----------|
D|--0--0-0---0-0---0-0---0-0---0--|--3--3-3---3-3---3-3---3-3---3----------|

e|--6--6-6---6-6---6-6---6-6---6--|----------------------------------------|
B|--8--8-8---8-8---8-8---8-8---8--|--3--3-3-3-3-3-3-5-5--------------------|
G|--7--7-7---7-7---7-7---7-7---7--|--3--3-3-3-3-3-3-5-5--------------------|
D|--5--5-5---5-5---5-5---5-5---5--|--3--3-3-3-3-3-3-5-5----3--0--5--7--8---|
A|--5--5-5---5-5---5-5---5-5---5--|--1--1-1-1-1-1-1-3-3----3--0--5--7--8---|
D|--5--5-5---5-5---5-5---5-5---5--|------------------------3--0--5--7--8---|

e|--5--5-5---5-5---5-5---5-5---5--|--5--5-5---5-5---5-5---5-5---5----------|
B|--6--6-6---6-6---6-6---6-6---6--|--5--5-5---5-5---5-5---5-5---5----------|
G|--7--7-7---7-7---7-7---7-7---7--|--5--5-5---5-5---5-5---5-5---5----------|
D|--0--0-0---0-0---0-0---0-0---0--|--3--3-3---3-3---3-3---3-3---3----------|
A|--0--0-0---0-0---0-0---0-0---0--|--3--3-3---3-3---3-3---3-3---3----------|
D|--0--0-0---0-0---0-0---0-0---0--|--3--3-3---3-3---3-3---3-3---3----------|

e|--6--6-----5--5-----3--3-----0--0----------------------------------------|
B|--8--8-----6--6-----2--2-----1--1-----3--3-3-3-3-3-3-3-3-----------------|
G|--7--7-----5--5-----0--0-----0--0-----3--3-3-3-3-3-3-3-3-----------------|
D|--5--5--------------2--2-----2--2-----3--3-3-3-3-3-3-3-3-----------------|
A|-----------------------------3--3-----1--1-1-1-1-1-1-1-1-----------------|
D|-------------------------------------------------------------------------|

	   CHORUS ENDING #1		    CHORUS ENDING #2
e|-------------------------------------------------------------------------|
B|-------------------------------------------------------------------------|
G|-------------------------------------------------------------------------|
D|------------------------------------------7--3--0--5--7--8---------------|
A|------------------------------------------7--3--0--5--7--8---------------|
D|---------7--3--0--5--7--8-----------------7--3--0--5--7--8---------------|


OUTRO:
                                                                         x7
e|-------------------------------------------------------------------------|
B|-------------------------------------------------------------------------|
G|-------------------------------------------------------------------------|
D|-------------------------------------------------------------------------|
A|--5-----1-----0-----8-----7----------------------------------------------|
D|-----0-----0-----0-----0-----0--7--3--0--5--7--8-------------------------|

e|--------------------------------|
B|--------------------------------|
G|--------------------------------|
D|--------------------------------|
A|--5-----1-----0-----8-----7-----|
D|-----0-----0-----0-----0--------|
                                                                         x8
e|-------------------------------------------------------------------------|
B|-------------------------------------------------------------------------|
G|-------------------------------------------------------------------------|
D|--------------------------------7--3--0--5--7--8-------------------------|
A|--5-----1-----0-----8-----7-----7--3--0--5--7--8-------------------------|
D|-----0-----0-----0-----0-----0--7--3--0--5--7--8-------------------------|


ORDER: (look beside tab for number of times to play unless otherwise stated)

INTRO
VERSE
PRE-CHORUS
CHORUS W/ ENDING #1
INTRO PART 2		x2
VERSE
PRE-CHORUS
CHORUS W/ ENDING #2
OUTRO


| H  hold chord/note
| /  slide up
| \  slide down
| h  hammer-on
| p  pull-off
| ~  vibrato
| +  harmonic
| x  Mute note
=============================================================================
comments
print report bad tab
25 comments total. Showing first comments.
0 reply
Zuka wrote on February 17 2006, 05:21 pm

Intro isn't very accurate, quite misleading actually. Some notes are added to the Pre Chorus, for some reason.

0 reply
Zuka wrote on February 26 2006, 08:12 pm

... My image is that of a jackass. I am truly sorry for my previous rating. Its changed now. Great job.

0 reply
jabber025 wrote on May 1 2006, 06:43 pm

some errors, its not perfect but very good
only thing i think...the intro goes better this way...i think
A|-------5-----------8---7---------...then it repeats
D|-5-7-8---0-8-0-7-0---0---0-7-3-0-
just what i heard
and there are extra notes on the chorus but pretty good overall

I want to post or [tab]
guest
You may want to rate the tab now too:
select rating
Please do not post tabs as comments. Select "correction" instead!