Oops, an error
Loading. Please wait.

Devil In A Midnight Mass Bass Tab

version 3
version 3
4,176 views 3 this week
3 commentsread comments
1 2 3 4 5
x 4
add to favorites
launch autoscroll
font size
0
reset
guitar tuner
Autoscroll
slow
fast
+/-
esc
set tempo
stop
Help us to improve Ultimate-Guitar.com Take our survey!
×
Author
Difficulty
intermediate
Intro 0:05

G|-----------------|
D|-----------------|
A|---3-1-----------|
E|-------0-1-3-4---|

Verse X 4

G|----------------------------|
D|----------------------------|
A|--------------3-1-----------|
E|---000000000------0-1-3-4---|

Verse X 2

G|-----------------------------|
D|-----------------------------|
A|--------------3-1------------|
E|---0-0-0-0-0------0-1-3-4----|

Pre-Chorus X 2

G|---------------------------------------|
D|---------------------------------------|
A|---5˜---3˜---------------3-1-----------|
E|--------------000000000------0-1-3-4---|

Then 

G|---------------------------------|
D|---------------------------------|
A|---5˜---3˜---1˜---0˜---3˜---5˜---|
E|---------------------------------|

Chorus

G|--------------------------------------------------------------------------------------------------------|
D|--------------------------------------------------------------------------------------------------------|
A|---3-1-----------5-5-----------------7-7----------------9-9-----------------11-11-11-11---5-5-7-5-4-2---|
E|-------0-1-3-4--------0-0-000000000-------00-000000000-------0-0-000000000------------------------------|

G|--------------------------------------------------------------------------------------|
D|--------------------------------------------------------------------------------------|
A|---5-5-----------------7-7----------------9-0-9-7-0-7-5-0-5-3-0-3-2-2-2-2-2-2-2-2-2---|
E|--------0-0-000000000-------00-000000000----------------------------------------------|

Verse X 2

G|----------------------------|
D|----------------------------|
A|--------------3-1-----------|
E|---000000000------0-1-3-4---|

Verse X 4

G|----------------------------|
D|----------------------------|
A|--------------3-1-----------|
E|---0-0-0-0-0------0-1-3-4---|

Pre-Chorus X 2

G|---------------------------------------|
D|---------------------------------------|
A|---5˜---3˜---------------3-1-----------|
E|--------------000000000------0-1-3-4---|






Then 

G|---------------------------------|
D|---------------------------------|
A|---5˜---3˜---1˜---0˜---3˜---5˜---|
E|---------------------------------|

Chorus

G|--------------------------------------------------------------------------------------------------------|
D|--------------------------------------------------------------------------------------------------------|
A|---3-1-----------5-5-----------------7-7----------------9-9-----------------11-11-11-11---5-5-7-5-4-2---|
E|-------0-1-3-4--------0-0-000000000-------00-000000000-------0-0-000000000------------------------------|

G|--------------------------------------------------------------------------------------|
D|--------------------------------------------------------------------------------------|
A|---5-5-----------------7-7----------------9-0-9-7-0-7-5-0-5-3-0-3-2-2-2-2-2-2-2-2-2---|
E|--------0-0-000000000-------00-000000000----------------------------------------------|

G|-----------------|
D|-----------------|
A|---3-1-----------|
E|-------0-1-3-4---|

Pause Until 2:28

Outro X 8

G|----------------------------|
D|----------------------------|
A|--------------3-1-----------|
E|---000000000------0-1-3-4---|
Suggest correction
comments
print report bad tab
3 comments total.
0 reply
guitarman599 10 Mar 30, 2007 05:09 PM

dude its in drop D tuning n wtf...?

0 reply
Butlers 32 Nov 23, 2013 12:56 PM

did you even listen to the song before doing this tab ?

0 reply
bangbang!! 471 Oct 15, 2014 12:05 PM

Lack of accuracy. Clearly wrong. SO wrong wrong tuning, wrong notes, scales that don't exist, etc. Really wish there was a correct tab for this song on UG.

guest
You may want to rate the tab now too:
select rating
Wanna post a correction for this tab? Suggest correction