Oops, an error
Loading. Please wait.

Devil In A Midnight Mass Tab

version 3
version 3
31,581 views 30 this week
4 commentsread comments
1 2 3 4 5
accurate
x 8
add to favorites
launch autoscroll
font size
0
reset
how to read this tab
guitar tuner
Autoscroll
slow
fast
+/-
esc
set tempo
stop
Help us to improve Ultimate-Guitar.com Take our survey!
×
Author
#----------------------------------PLEASE NOTE---------------------------------#
#This file is the author's own work and represents their interpretation of the #
#song. You may only use this file for private study, scholarship, or research. #
#------------------------------------------------------------------------------#


Intro: 
 
e|-------|-----------------|-----------------|-----------------|-----------------| 
B|-------|-----------------|-----------------|-----------------|-----------------| 
G|-------|-----------------|-----------------|-----------------|-----------------| 
D|-------|-----------------|-----------------|-----------------|-----------------| 
A|-------|-5-----------8---|-7---------------|-5-----------8---|-7---7-3-0-5-7-8-| 
D|-5h7-8-|---0-8p0-7p0---0-|---0-7p3p0h5h7-8-|---0-8p0-7p0---0-|---0-7-3-0-5-7-8-| 
 
 |                                 x4| 
e|-----------------|-----------------| 
B|-----------------|-----------------| 
G|-----------------|-----------------| 
D|-7---------------|-----------------| 
A|-5-----------8---|-7---7-3-0-5-7-8-| 
D|---0-8p0-7p0---0-|---0-7-3-0-5-7-8-| 
 
Verse: 
 
 |                                 x4| 
e|-----------------|-----------------| 
B|-----------------|-----------------| 
G|-----------------|-----------------| 
D|-----------------|-----------------| 
A|-0---------------|-----7-3-0-5-7-8-| 
D|-0---------------|-----7-3-0-5-7-8-| 
  1.A devil in a midnight mass 
  2.He prayed behind stained glass 
  3.A memory of sunday class 
  4.Ressurected from the past 
 
PreChorus: 
 
 |                                                                     x2| 
e|-----------------|-----------------|-----------------|-----------------| 
B|-11--------------|-10--------------|-----------------|-----------------| 
G|-10--------------|-9---------------|-----------------|-----------------| 
D|-8---------------|-7---------------|-----------------|-------------5---| 
A|-8---------------|-7---------------|-----------8---7-|---7-5-3-5-7-3---| 
D|-8---------------|-7-------------0-|---8p0-7p0---0---|-0-7-5-3-5-7-----| 
  1.Hold your breath and count to four 
  2.Pinky swears don't work no more 
 
e|-----------------|-----------------|-----------------|-----------------| 
B|-11--------------|-10--------------|-3---------------|-6---------------| 
G|-10--------------|-9---------------|-2---------------|-5---------------| 
D|-8---------------|-7---------------|-0---------------|-3---------------| 
A|-8---------------|-7---------------|-0---------------|-3---------------| 
D|-8---------------|-7---------------|-0---------------|-3---------------| 
  1.Footsteps down my hallway floor, getting closer to my door 
 
e|-----------------|-----------------|-----------------| 
B|-11--------------|-10--------------|-----------------| 
G|-10--------------|-9---------------|-----------------| 
D|-8---------------|-7---------------|-----------------| 
A|-8---------------|-7---------------|-----7-5-3-5-7-8-| 
D|-8---------------|-7---------------|-----7-5-3-5-7-8-| 
  1.I was alive, but now I'm singing 
 
Chorus: 
 
e|-----------------|-----------------|-----------------|-----------------| 
B|-----------------|-----------------|-6-----6---6-----|-6-----6---6-6-6-| 
G|-7-----7---7-----|-7-----7---7-7-7-|-5-----5---5-----|-5-----5---5-5-5-| 
D|-0-----0---0-----|-0-----0---0-0-0-|-3-----3---3-----|-3-----3---3-3-3-| 
A|-5-----5---5-----|-5-----5---5-5-5-|-3-----3---3-----|-3-----3---3-3-3-| 
D|-0-----0---0-----|-0-----0---0-0-0-|-3-----3---3-----|-3-----3---3-3-3-| 
1.Silent Night for the rest of my life, Silent night for the rest of my life 
 
e|-----------------|-----------------|-----------------|-----------------| 
B|-----------------|-----------------|-----------------|-----------------| 
G|-7-----7---7-----|-7-----7---7-7-7-|-10----10--1010--|-9---------------| 
D|-5-----5---5-----|-5-----5---5-5-5-|-8-----8---8-8---|-7---------------| 
A|-5-----5---5-----|-5-----5---5-5-5-|-8-----8---8-8---|-7---7-3-0-5-7-8-| 
D|-5-----5---5-----|-5-----5---5-5-5-|-8-----8---8-8---|-7---7-3-0-5-7-8-| 
1.Silent Night at the edge of your knife, (Guilty guilty) Won't make it right 
 
e|-----------------|-----------------|-----------------|-----------------| 
B|-----------------|-----------------|-6-----6---6-----|-6-----6---6-6-6-| 
G|-7-----7---7-----|-7-----7---7-7-7-|-5-----5---5-----|-5-----5---5-5-5-| 
D|-0-----0---0-----|-0-----0---0-0-0-|-3-----3---3-----|-3-----3---3-3-3-| 
A|-5-----5---5-----|-5-----5---5-5-5-|-3-----3---3-----|-3-----3---3-3-3-| 
D|-0-----0---0-----|-0-----0---0-0-0-|-3-----3---3-----|-3-----3---3-3-3-| 
1.Silent Night for the rest of my life, Silent night at the edge of your knife 
 
e|-----------------|-----------------|-----------------|-----------------| 
B|-----------------|-----------------|-----------------|-----------------| 
G|-10--10--9---9---|-7---7---5---5---|-9-9-9-9-9-9-9-9-|-9-9-------------| 
D|-8---8---7---7---|-5---5---3---3---|-7-7-7-7-7-7-7-7-|-7-7-------------| 
A|-8---8---7---7---|-5---5---3---3---|-7-7-7-7-7-7-7-7-|-7-7-7-3-0-5-7-8-| 
D|-8---8---7---7---|-5---5---3---3---|-7-7-7-7-7-7-7-7-|-7-7-7-3-0-5-7-8-| 
1.You're guilty 
 
Preverse: 
 |                                 x2| 
e|-----------------|-----------------| 
B|-----------------|-----------------| 
G|-----------------|-----------------| 
D|-7---------------|-----------------| 
A|-5-----------8---|-7---7-3-0-5-7-8-| 
D|---0-8p0-7p0---0-|---0-7-3-0-5-7-8-| 
 
Bridge 1: 
 |                                 x7| 
e|-----------------|-----------------|-----------------|-----------------| 
B|-----------------|-----------------|-----------------|-----------------| 
G|-----------------|-----------------|-----------------|-----------------| 
D|-----------------|-----------------|-----------------|-----------------| 
A|-5-----------8---|-7---------------|-5-----------8---|-7---------------| 
D|---0-8p0-7p0---0-|---0-7p3p0h5h7-8-|---0-8p0-7p0---0-|-----------------| 
5.7. Whisper, whisper, don't make a sound 
6.8. Your bed is made and it's in the ground 
 
Bridge 2: 
 |                                 x8| 
e|-----------------|-----------------| 
B|-----------------|-----------------| 
G|-----------------|-----------------| 
D|-7---------------|-----------------| 
A|-5-----------8---|-7---7-3-0-5-7-8-| 
D|---0-8p0-7p0---0-|---0-7-3-0-5-7-8-| 
1.3.5.7. Whisper, whisper, don't make a sound 
2.4.6.8. Your bed is made and it's in the ground 
 
Order: 
Intro 
Verse 
PreChorus 
Chorus 
Preverse 
Verse 
PreChorus 
Chorus 
Bridge 1 
Bridge 2
Suggest correction new What's this?
You can suggest a correction to this tab. Community and Mods will review your correction and vote to approve or reject it.
comments
print report bad tab
4 comments total. Showing first comments.
0 reply
Lord-Roli 278 wrote on February 27 2007, 12:49 am

i find that was good, because it is easier than the other tabs.

0 reply
skull78 254 wrote on April 23 2007, 03:04 am

its a good tab

0 reply
ratchmo 18 wrote on May 7 2007, 05:35 pm

looks good, but some lyrics wrong...

guest
You may want to rate the tab now too:
select rating
Please do not post tabs as comments. Select "correction" instead!