Oops, an error
Loading. Please wait.

Devil On My Shoulder Bass Tab

version 1
version 1

Whole song

42,086 views 63 this week
9 commentsread comments
1 2 3 4 5
x 11
add to favorites
launch autoscroll
font size
0
reset
guitar tuner
Autoscroll
slow
fast
+/-
esc
set tempo
stop
Help us to improve Ultimate-Guitar.com Take our survey!
×
Author
tabbed by tony d

i fixed the verse

 [Intro]2x
G|-------------------------------------------|
D|---------------------------------------3---|
A|--------8--------7-----5-3-0-------------5-|
E|D-0-0--0---0-0--0---0-0-------3-5-7-3-0-----|

 [Verse]4x     After 1-3x     After 4x
G|-----------|-----7--------|-----------------|
D|-----------|-5-7-----8-10-|-5-5-5-5-7-7-8-8-|
A|-0---1---4-|--------------|-----------------|
E|D-----------|--------------|-----------------|

 [Pre-Chorus]1x
G|-----------------------------------------|
D|-----------------------------------------|
A|-------------------5-----------------5-5-|
E|D-5-5--5-5-5--5-0-0---5-5--5-5-5--5-0-----|

G|---------------------------------------|
D|---------------------------------------|
A|-----------------------0-0-0-0-1-1-1-1-|
E|D-5-5--5-5-5--5-0-0-0-0-----------------|

 [Chorus]3x                                 After 3x
G|----------------------------------------|-------------------------------|
D|----------------------------------------|-------------------------------|
A|-5--------------------3-0-------5-3-0---|-5-----------------------------|
E|D---0-3-7-5-5-5-5--7-7-----3-0-0-------3-|---0-3-7-5-5-5-5-7-7-7-7-8-8-8-|

[Post-Chorus] 2x
[Verse] 1x
[Pre-Chorus] 1x
[Chorus] 3x

 [Bridge] 1x
G|--------------------------------------------|
D|--------------------------------------------|
A|--------------------------------------------|
E|D-0-3-7-5-5--7-3-5-0-0--0-3-7-5-5--7-3-5-0-0-|

G|------------------------------------------|
D|------------------------------------------| Play 6x
A|---------------------------55-5-77-7-88-8-|
E|D-77-7-77-7-88-8-88-8-0-0-0----------------|

G|---------------------------------|
D|---------------------------------| Play 8x
A|-5-------------------------------|
E|D---0-3-7-5-5-5-5-5-7-3-5-0-0-0-0-|

[Chorus] 3x
[Outro] Intro 2x
Suggest correction
comments
print report bad tab
9 comments total. Showing first comments.
0 reply
Andrax20 160 Jul 14, 2009 10:26 PM

Everything seems pretty correct, but Jon Gallant himself posted the tabs from the bridge in the song, which goes:

Bridge:4x
G-----------------|-------------------|
D-----------------|-------------------|
A-5---------------|-------------------|
D---0-3-7-5-5-5-5-|-5-7-3-5-0-0-0-0---|

0 reply
FBassman 1,012 Aug 11, 2009 06:36 PM

uhh... that is what this guy has posted. check the last line of the bridge. this tab is all right, but lots of stuff is wrong... i'll post a more correct version soon.

0 reply
temp144 1,191 Aug 11, 2009 09:48 PM

yeah i tabbed this when it first came out live
plus im not an efficient bassist. most of you would get this before i would

guest
You may want to rate the tab now too:
select rating
Wanna post a correction for this tab? Suggest correction