Oops, an error
Loading. Please wait.

Devil On My Shoulder Tab

version 1
version 1

Intro

Whole song

36,961 views 15 this week
3 commentsread comments
1 2 3 4 5
x 6
add to favorites
launch autoscroll
font size
0
reset
how to read this tab
guitar tuner
Autoscroll
slow
fast
+/-
esc
set tempo
stop
Help us to improve Ultimate-Guitar.com Take our survey!
×
Author
-------------------------------------------------------------------------------
                             DEVIL ON MY SHOULDER (INTRO) - Billy Talent
-------------------------------------------------------------------------------
Tabbed by:DST
Email:extremly_confused@hotmail.com

Tuning:Drop D (DADGBe)

I have made a guitar pro tab for the whole song but some people can't use it i have 
One person has made an accurate tab of the solo from a video so i have decided to tab the 
and verse.

You can notice the starting chords are extremely similar to those in Living in the 
(it is also in the same key).

Chords:

e|---|
B|-6-|
G|-5-| = D minor 7th (1st finger barred on 5th fret, 3rd finger on 7th fret
D|-7-|   on the D(3rd) string and 2nd finger on 6th fret on B string)
A|-5-|
D|---|


Intro

e|----------------------------------------------|
B|--------10------8-----------------------------|
G|--------7-------6-----------------------------|
D|--------x-------x-----------------------3-----| x3
A|--------8-------7-----5p3p0---------5p0---5~--|
D|--0-0-0---0-0-0---0-0-------3/5h7p0-----------|

e|-------------------------------------------------|
B|--------10------8--------------------------------|
G|--------7-------6--------------------------------|
D|--------x-------x-----------------------3--------|
A|--------8-------7-----5p3p0---------5p0----------|
D|--0-0-0---0-0-0---0-0-------3/5h7p0-------5b7----|

Verse

e|----------------------------------------------------|
B|--2-3-6---------------------------------------------|
G|--2-3-6---------------------------------------------| x2
D|--2-3-6---------3-----------------------------------|
A|--0-1-4-----5p0-------------------------------------|
D|--------7p0-------5b7-------------------------------|

e|----------------------------------------------------|
B|--2-x-x-x-3-x-x-x-6-x-x-x---------------------------|
G|--2-x-x-x-3-x-x-x-6-x-x-x---------------------------|
D|--2-x-x-x-3-x-x-x-6-x-x-x---------3-----------------|
A|--0-x-x-x-1-x-x-x-4-x-x-x-----5p0-------------------|
D|--------------------------7p0-------5b7-------------|

e|----------------------------------------------------------------|
B|--2-x-x-x-3-x-x-x-6-x-x-x-6-6-6-6-6-6-6-6-8-8-8-8-10-10-10-10---|
G|--2-x-x-x-3-x-x-x-6-x-x-x-5-5-5-5-5-5-5-5-9-9-9-9-10-10-10-10---|
D|--2-x-x-x-3-x-x-x-6-x-x-x-7-7-7-7-7-7-7-7-9-9-9-9-10-10-10-10---|
A|--0-x-x-x-1-x-x-x-4-x-x-x-5-5-5-5-5-5-5-5-7-7-7-7-8--8--8--8----|
D|--------------------------0-0-0-0-0-0-0-0-----------------------|

Pre-Chorus

e|---------------------------------------------------------------------------------|
B|--------------6-6-------------6-6-------------6-6--------------------------------|
G|--------------5-5-------------5-5-------------5-5--------------------------------|
D|--5-5-3-5-7-0-7-7-5-5-3-5-7-0-7-7-5-5-3-5-7-0-7-7-7-7-7-7-7-7-7-7-8-8-8-8-8-8-8-8|
A|--5-5-3-5-7-0-5-5-5-5-3-5-7-0-5-5-5-5-3-5-7-0-5-5-7-7-7-7-7-7-7-7-8-8-8-8-8-8-8-8|
E|--5-5-3-5-7-0-----5-5-3-5-7-0-----5-5-3-5-7-0-----7-7-7-7-7-7-7-7-8-8-8-8-8-8-8-8|

Please let me know what you think! Practice and enjoy.

| b  bend (up to next note)
| /  slide up
| \  slide down
| h  hammer-on
| p  pull-off
| ~  vibrato
| +  harmonic
| x  Mute note
===============================================================================
Suggest correction
comments
print report bad tab
3 comments total.
0 reply
wilk3 109 Jun 09, 2009 08:12 PM

Not a big correction, but I think the intro goes.
Sounds right to me but not 100% shure about this besides it looks on the deep D-String different to the Rock am Ring 2009 Performance.

e|--------------------------|
B|--------------------------|
G|--------------------------|
D|---------------------3p0~-|
A|-5p3p0---------5p0--------|
D|-------5p3-5h7------------|

-1 reply
frenchdude 172 Jul 10, 2009 04:46 PM

Goog job overall thanks ! My turn for little corrections ^^

I really think that intro should be played like this (i have the RAR 2009 show and i really paid attention to his fingerings). Ian ends the riff on the A string the first time :

E|----------------------------------------------|
B|--------10---------8--------------------------|
G|--------7----------0--------------------------|
D|--------7----------8--------------------------|
A|--------8----------7-------5p3p0------5---8-5~|
D|-0-0--0-----0-0--0----0-0-------3h5h7---0-----|

and for the last measure it gives :

E|---------------------|
B|---------------------|
G|---------------------|
D|---------------------|
A|-5p3p0-------5---8---|
D|-------3h5h7---0--6b-|

0 reply
dexus 10 Apr 15, 2010 11:15 AM

Watch this video: http://www.youtube.com/watch?v=e5y_ziDfWkk (0:06 - 0:12)

After the two jazz chords, the riff goes like this:


E|----------------------------|
B|----------------------------|
G|----------------------------|
D|----------------------------|
A|-5p3p0-----------5p0--8--5~-|
D|--------3h5/7p0-------------|


Ring finger does the pull off on 7p0.
Index does the pull off on 5p0.
Pinky finger hits 8.
Index on 5 with single finger vibrato.

guest
You may want to rate the tab now too:
select rating
Wanna post a correction for this tab? Suggest correction