Oops, an error
Loading. Please wait.

Devil On My Shoulder Tab

version 2
version 2
6,360 views 3 this week
1 commentread comment
1 2 3 4 5
worth learning
x 3
add to favorites
launch autoscroll
font size
0
reset
how to read this tab
guitar tuner
Tab Pro tools
  • play this tab
  • loop segment
  • change instrument
  • show fretboard
  • metronome
Autoscroll
slow
fast
+/-
esc
set tempo
stop
Contributor
Difficulty
Tuning
intermediate
D A D G B E
-------------------------------------------------------------------------------
  DEVIL ON MY SHOULDER; EXTENDED SOLO - Billy Talent
-------------------------------------------------------------------------------

Tabbed by: Mark M
E-mail: billytalentpunk0@hotmail.com

Tuning: Drop D (DADGBe)

You can hear it here at 3:45...
http://www.youtube.com/watch?v=opjHkGifCms


e|--13p10~--------13p10~----------10------------------------------------------|
B|-----------------------------------13-10h13p10---------------10h12-10-------|
G|--------------------------12b14----------------12b14~--10----10h12-10-------|
D|----------------------------------------------------------12----------12~---|
A|----------------------------------------------------------------------------|
D|----------------------------------------------------------------------------|

e|----------------------------------------------------------------------------|
B|--------10-10-10-12-12b13b12~--10-------------------------------------------|
G|--------10-10-10-12-12b13b12~--10-12p10-------------------------------------|
D|--10h12---------------------------------12------10-12-12~-------------------|
A|--------------------------------------------/12-----------------------------|
D|----------------------------------------------------------------------------|

               (HOLD BEND)
e|----------------------------------------------------------------------------|
B|--------10-10-----13--13-13-13-13-----13----13-----13-13--------------------|
G|--------10-12b14-b14-b14-12-10-10h12--10----10h12--10-----------------------|
D|--10h12----------------------------------12-----------12--------------------|
A|----------------------------------------------------------------------------|
D|----------------------------------------------------------------------------|

               (HOLD BEND)
E|----------------------------------------------------------------------------|
B|--------13-13-----13--13-13-13-13-----13----13-----13-13--13-13-------------|
G|--------10-12b14-b14-b14-12-10-10h12--10----10h12--10--------12-0-----------|
D|--10h12----------------------------------12-----------12--12----0-----------|
A|----------------------------------------------------------------------------|
D|----------------------------------------------------------------------------|

e|--------10------------------------------------------------------------------|
B|-----------13-10----------------12-10~-------10-12b13-12-12b13-12-12b13-12--|
G|--12p14----------12-10-12-10----12-10~-------10-12b13-12-12b13-12-12b13-12--|
D|-----------------------------12--------12-12--------------------------------|
A|----------------------------------------------------------------------------|
D|----------------------------------------------------------------------------|

    (HOLD BEND)
e|--------------------------------------------10-10---------------------------|
B|--13----13-13-12-10-10/12-10----13-13-13-13-10-10---------------------------|
G|--12b14b14b14-12-10-10/12-10----10-10-12-12-10-10---------------------------|
D|-----------------------------12-------------------12--12-12-12-12-12--------|
A|----------------------------------------------------------------------------|
D|----------------------------------------------------------------------------|

                                                (HOLD BEND)
e|---------------------------------------------13-13-13-13-13-----------------|
B|--------------------------10-10-10-10--------13-13-13-13-13-----------------|
G|--------------------------10-10-10-12b14--12b14b14b14b14b14-----------------|
D|--10-10-12-12-10-10-12-12---------------------------------------------------|
A|----------------------------------------------------------------------------|
D|----------------------------------------------------------------------------|

    (HOLD BEND)             X6
e|---13-13-13-13-13-13-13-13--|---13\-----------------------------------------|
B|---13-13-13-13-13-13-13-13--|---13\-----------------------------------------|
G|--b14b14b14b14b14b14b14b14--|--b14\-----------------------------------------|
D|----------------------------|-----------------------------------------------|
A|----------------------------|-----------------------------------------------|
D|----------------------------------------------------------------------------|

| /  slide up
| \  slide down
| b  bend string(s)
| h  hammer-on
| p  pull-off
| ~  vibrato
===============================================================================
comments
We did not receive enough feedback on this tab! Please rate:
print report bad tab
1 2 3 4 5
1 comment total.
0 reply
__Schilli__ wrote on June 19 2014, 08:04 am

Clearly wrong.

I want to post or [tab]
guest
You may want to rate the tab now too:
select rating
Please do not post tabs as comments. Select "correction" instead!