Oops, an error
Loading. Please wait.

Devil On My Shoulder Tab

version 3
version 3
6,076 views 15 this week
2 commentsread comments
1 2 3 4 5
excellent!
x 5
add to favorites
launch autoscroll
font size
0
reset
how to read this tab
guitar tuner
Tab Pro tools
  • play this tab
  • loop segment
  • change instrument
  • show fretboard
  • metronome
×
Best way to learn
"Devil On My Shoulder"
Autoscroll
slow
fast
+/-
esc
set tempo
stop
Contributor
Devil On My Shoulder - Billy Talent (iTunes Sessions) - New Solo

-----------------------------------------------------------------------

3:04
E|-13-10---------10--8-------------------------------------------------|
B|---------8b-----------10--8b8-----------------10---------8b----------|
G|-------------------------------10b------------10---------------------|
D|------------------------------------12--10h12----12--10--------------|
A|---------------------------------------------------------------------|
D|---------------------------------------------------------------------|

3:12
E|-10--8---------------------------------------------------------------|
B|--------10--8b8-----------------10---------8b------------------------|
G|-----------------10b------------10-----------------------------------|
D|----------------------12--10h12----12--10----------------------------|
A|---------------------------------------------------------------------|
D|---------------------------------------------------------------------|

3:17
E|-10--8---------------------------------------------------------------|
B|--------10--8b8-----------10h12-10-------------10--8b----------------|
G|-----------------10b------10h12-10-------------10--------------------|
D|----------------------12------------12--10h12------------------------|
A|---------------------------------------------------------------------|
D|---------------------------------------------------------------------|

3:22
E|-8---8---8---8---8----8---8---8---8---8---8---8----------------------|
B|-10--10--8---6-6/8----6-----6/8---6-----------6----------------------|
G|--------------------------7-----------7---5/7------------------------|
D|---------------------------------------------------------------------|  x2
A|---------------------------------------------------------------------|
D|---------------------------------------------------------------------|

3:33
E|----10h8----------7--------------------------------------------------|
B|-10------10-8-6---8--6---------6--------------------6----------------|
G|----------------7--7---7-------7--------------------7----------------|
D|-------------------------5/6/7---7/6/5---3/5-------------------------|
A|---------------------------------------5-----------------------------|
D|---------------------------------------------0-0-0-0-----------------|

3:37
E|----10s-8s----------------8--8--8--8-8-----------5-------------------|
B|-8b--------8-6-8-6h7h8-8b-10-10-10-8h6---6-6-8-8-6-------------------|
G|---------------7-----------------------7-----------7-----------------|
D|---------------------------------------------------------------------|
A|---------------------------------------------------------------------|
D|---------------------------------------------------------------------|
s = squeal

3:42
E|-10-10-8h10-13h15-10-17b-15-13h15-10-8h10h8/5---5--------------------|
B|----------------------------------------------6-6--8b-6---8-8-6h6----|
G|--------------------------------------------------------7---------7--|
D|---------------------------------------------------------------------|
A|---------------------------------------------------------------------|
D|---------------------------------------------------------------------|

3:48
E|---------------------------------------------------------------------|
B|----------------------------------------------------------6----------|
G|-7-7------------------------------------------------------7----------|
D|-----10-10-7-7-6-6-5-5-5-5-5-5-5-6-7-10-7-5---3h5--------------------|
A|--------------------------------------------5------------------------|
D|--------------------------------------------------0-0-0-0------------|

3:52
E|---------------------------------------------------------------------|
B|------------------------------------------------------------6--------|
G|------------------------------------------------------------7--------|
D|---------------------------------------------------------------------| x3
A|-5-5-----------------------------------------------------------------|
D|-----0-0-3-3-7-7-5-5-5-5-5-5-5-5h6h7-10-7h6h5-0-3-5-0-0-0-0----------|

4:07
E|-------------------------------10-10-10-10-10-10---------------------|
B|-------------------------------10-10-10-8b---------------------------|
G|-------------------------------------------10-7----------------------|
D|---------------------------------------------------------------------|
A|-5-5-----------------------------------------------------------------|
D|-----0-0-3-3-7-7-5-5-5-5-5-5-5---------------------------------------|

E|-13-13-13-13-13-13-13-13---------------------------------------------|
B|-10-10-10-10-10-10-10-10---------------------------------------------|
G|---------------------------------------------------------------------|
D|---------------------------------------------------------------------|
A|---------------------------------------------------------------------|
D|---------------------------------------------------------------------|
comments
print report bad tab
2 comments total.
0 reply
slashwes wrote on June 19 2014, 08:01 am

didn't like this contribution

0 reply
__Schilli__ wrote on June 19 2014, 08:04 am

didn't like this contribution

I want to post or [tab]
guest
You may want to rate the tab now too:
select rating
Please do not post tabs as comments. Select "correction" instead!