Oops, an error
Loading. Please wait.

Devil On My Shoulder Tab

version 1
version 1

Whole song

89,301 views 42 this week
3 commentsread comments
1 2 3 4 5
accurate
x 3
add to favorites
launch autoscroll
font size
0
reset
how to read this tab
guitar tuner
Autoscroll
slow
fast
+/-
esc
set tempo
stop
Help us to improve Ultimate-Guitar.com Take our survey!
×
This is an amazing song. Most of these tabs are NOT MINE.
They are courtesy of aRAGman on the Billy Talent Forums.
The only part I tabbed out is the solo. other than that, I just fixed some minor 
and changed the alignment.
Enjoy. ^_^
-BloodPixie

(The) Devil On My Shoulder
Intro:
e-----------------------------------------------------------------------|
B--------------6---------------8----------------------------------------|
G--------------7---------------6----------------------------------------|
D--0-0---0-----7------0-0--0---8----0-0-----------------------3---------|
A--0-0---0-----5------0-0--0---7----0-0-----5p3p0------0--5-0----5------|
D--0-0---0------------0-0--0--------0-0------------3h5--0---------------|
X3
4th time play:
e--------------------------------------------------------------------|
B--------------6---------------8-------------------------------------|
G--------------7---------------6-------------------------------------|
D--0-0---0-----7------0-0--0---8----0-0-----------------------3------|
A--0-0---0-----5------0-0--0---7----0-0-----5p3p0------0--5-0--------|
D--0-0---0------------0-0--0--------0-0------------3h5--0--------6b--|

Verse:
e-----------------------------------|
B-----------------------------------|
G-2-----3----6----------------------|
D-2-----3----6------------3---------|
A-0-----1----4-----0--5-0-----------|
D----------------0---0------6b------|  x2

e-------------------------------------------|
B-------------------------------------------|
G-2-xx-x---3-xx-x--6-xx-x-------------------|
D-2-xx-x---3-xx-x--6-xx-x----------3--------|
A-0-xx-x---1-xx-x--4-xx-x---0--5-0----------|
D-------------------------0---0------6b-----|

e---------------------------------------------------------|
B--------------------------------------10-10-10-10-10-10--|
G-2-xx-x---3-xx-x--6-xx-x---7-7-7-7----9--9--9--9--9--9---|
D-2-xx-x---3-xx-x--6-xx-x---7-7-7-7----7--7--7--7--7--7---|
A-0-xx-x---1-xx-x--4-xx-x---5-5-5-5-----------------------|
D---------------------------------------------------------|

Pre-Chorus:
e-----------------------------------------|
B------------------------6----------------|
G------------------------7----------------|
D-5--5-5-5-5-------------7----------------|
A-5--5-5-5-5------0---5--5----------------|
D-5--5-5-5-5--3h5---0---------------------|x3
4th time play:
e------------------------------------|
B------------------------------------|
G------------------------------------|
D-7---7-7-7-7-7-7--8---8-8-8-8-8-8---|
A-7---7-7-7-7-7-7--8---8-8-8-8-8-8---|
D-7---7-7-7-7-7-7--8---8-8-8-8-8-8---|

Chorus:
e-------------------------------------------------------|
B-------------------------------------------------------|
G----7--------------------------------------------------|
D----7--0-3-7-5--5----7--7------3-0---------------------|
A----5--0-3-7-5--5----7--7--3p0-3-0------5p3------------|
D-------0-3-7-5--5----7--7------3-0----------5p3--------|x3
4th time play:
e----------------------------------------------------------------|
B----------------------------------------------------------------|
G----7-----------------------------------------------------------|
D----7--0-3-7-5--5----7--7-7-7-7-7-7--8--8-8-8-8-8-8-------------|
A----5--0-3-7-5--5----7--7-7-7-7-7-7--8--8-8-8-8-8-8-------------|
D-------0-3-7-5--5----7--7-7-7-7-7-7--8--8-8-8-8-8-8-------------|

Interlude (Intro)
e------------------------------------------------------------------|
B---------------6--------------8-----------------------------------|
G---------------7--------------6-----------------------------------|
D--0-0---0------7------0-0--0--8-----0-0----------------------3----|
A--0-0---0------5------0-0--0--7-----0-0-----5p3p0------0--5-0-5---|
D--0-0---0-------------0-0--0--------0-0------------3h5--0---------|

e-----------------------------------------------------------------------|
B---------------6---------------8---------------------------------------|
G---------------7---------------6---------------------------------------|
D--0-0---0------7------0-0--0---8----0-0----------------------3---------|
A--0-0---0------5------0-0--0---7----0-0-----5p3p0-----0--5-0-----------|
D--0-0---0-------------0-0--0--------0-0------------3h5--0-----5b-------|

Then Play:
Verse
Chorus

Solo:
e--------10~~~10~~~~-------10-8-------------------------------|
B------10---------------9b~-----10-8-10-8---------------------|
G----10-----------------------------------10-x-12-10----------|
D--12------------------------------------------------12-10-12-|
A-------------------------------------------------------------|
D-------------------------------------------------------------|

e-------10~~~13p10~~~~---10-8---------------------|
B-----10--------------9b~----10-8~~-8-10-8--------|
G---10---------------------------10--------10-9~~-|
D-12----------------------------------------------|
A-------------------------------------------------|
D-------------------------------------------------|


e-------------------------------------------------------------------|
B-------------------------------------10-11-10----------------------|
G~~~~~~9-10-12~~9-10-9-7-10~~~~~10-12---------12-10-12-10-7-9~~~~~~-|
D-------------------------------------------------------------------|
A-------------------------------------------------------------------|
D-------------------------------------------------------------------|

e--------------------------------10-8--------------------|
B-----------------------------9b------10-8---------------|
G-9-10-12~~~9-10-9-7-10~~~~~~--------------10-12-10------|
D---------------------------------------------------12---|
A--------------------------------------------------------|
D--------------------------------------------------------|

After solo:
e-------------------------------------------------------------|
B-----------------------------6-6--6-6-6--6-8-8--8-8-8--------|
G-----------------------------7-7--7-7-7--7-6-6--6-6-6--------|
D--7-7--7-7-7--7-8-8--8-8-8---7-7--7-7-7--7-8-8--8-8-8--------|
A--7-7--7-7-7--7-8-8--8-8-8---5-5--5-5-5--5-7-7--7-7-7--------|
D--7-7--7-7-7--7-8-8--8-8-8---0-0--0-0-0--0-------------------|x4

Outro
e-----------------------------------------------------------------------|
B--------------6---------------8----------------------------------------|
G--------------7---------------6----------------------------------------|
D--0-0---0-----7------0-0--0---8----0-0---------------------3-----------|
A--0-0---0-----5------0-0--0---7----0-0-----5p3p0---0---5--0--5---------|
D--0-0---0------------0-0--0--------0-0----------3h5--0-----------------|

e------------------------------------------------------------------|
B--------------6---------------8-----------------------------------|
G--------------7---------------6-----------------------------------|
D--0-0---0-----7------0-0--0---8----0-0-------------------3--------|
A--0-0---0-----5------0-0--0---7----0-0---5p3p0---0--5--0--5-------|(stop)
D--0-0---0------------0-0--0--------0-0-------3h5---0--------------|
Suggest correction
What's this?
You can suggest a correction to this tab. Community and Mods will review your correction and vote to approve or reject it.
comments
We did not receive enough feedback on this tab! Please rate:
print report bad tab
1 2 3 4 5
3 comments total.
0 reply
BTrz 248 wrote on April 18 2009, 06:44 am

pretty good, BUT:
In the verse, there are major chords (instead of the power chords you wrote) (for example: Amaj, Bbmaj, C#maj)
There are missing some parts in the solo
and (just a detail) i think that he plays an extra A note on the e string when he plays the D minor chord
But apart from these things, an AWESOME tab if we consider that there's only a live version of the song

0 reply
unknown-user 137 wrote on May 15 2009, 08:14 pm

For the solo, i looked at Ian d'sa doing it on the website : billytalent3.com , and instead of playing the 10 on the last string, he plays a 15 on the 2nd string, check it out to make sure your solo is perfect =)

0 reply
jazzyjam09 24 wrote on November 1 2009, 07:34 pm

Hey man this is an awesome tab ive been playing it for a while but i was wondering about the strumming patern on the
Last half of Pre Chorus
e------------------------------------|
B------------------------------------|
G------------------------------------|
D-7---7-7-7-7-7-7--8---8-8-8-8-8-8---|
A-7---7-7-7-7-7-7--8---8-8-8-8-8-8---|
D-7---7-7-7-7-7-7--8---8-8-8-8-8-8---|
Last half of Chorus
e-------------------------------------------|
B-------------------------------------------|
G-------------------------------------------|
D7--7-7-7-7-7-7--8--8-8-8-8-8-8-------------|
A7--7-7-7-7-7-7--8--8-8-8-8-8-8-------------|
D7--7-7-7-7-7-7--8--8-8-8-8-8-8-------------|
and After Solo
e-------------------------------------------------------------|
B-----------------------------6-6--6-6-6--6-8-8--8-8-8--------|
G-----------------------------7-7--7-7-7--7-6-6--6-6-6--------|
D--7-7--7-7-7--7-8-8--8-8-8---7-7--7-7-7--7-8-8--8-8-8--------|
A--7-7--7-7-7--7-8-8--8-8-8---5-5--5-5-5--5-7-7--7-7-7--------|
D--7-7--7-7-7--7-8-8--8-8-8---0-0--0-0-0--0-------------------|x4
no matter how hard i try i cannot get the strumming right can u plz help thanx :D

guest
You may want to rate the tab now too:
select rating
Please do not post tabs as comments. Select "correction" instead!