Oops, an error
Loading. Please wait.

Devil On My Shoulder Bass Tab

version 2
version 2

Whole song

12,049 views 18 this week
1 commentread comment
1 2 3 4 5
accurate
x 6
add to favorites
launch autoscroll
font size
0
reset
guitar tuner
Autoscroll
slow
fast
+/-
esc
set tempo
stop
Help us to improve Ultimate-Guitar.com Take our survey!
×
Author
Difficulty
Tuning
intermediate
D A D G B E
-----------------------------------------------------------------
DEVIL ON MY SHOULDER – Billy Talent
-----------------------------------------------------------------
Tabbed By: Justin
e-mail: jpyke@telus.net
Tuning: Drop D

Intro

G|-------------------------------------------------------|
D|-----3-----2------------3------3-----2------------3----|
A|---------------530--035--5---------------530--035------|
D|-00-0--00-0--00---35---0---00-0--00-0--00---35---0-5^7-|

Verse

G|-----------------|
D|------------3----|
A|-0-1-4--0-5------|x3
D|-------0-0-0-5^7-|

G|---------------------|
D|---------------------|
A|-0-1-4-5555-77778888-|
D|---------------------|

Pre-Chorus

G|-----------------------------------------------------------|
D|-----------------------------------------------------------|
A|---------0-5----------0-5-5----------0-5--0000000011111111-|
D|-55-55535-0-0-55-55535-0---0-55-55535-0-0------------------|

Chorus

G|--------------------------------|
D|--------------------------------|
A|-5-----0-----00-030--------53---|x3
D|---0-3---5-5--------3^5-0-0--30-|

G|------------------------------|
D|------------------------------|
A|-5-----0-----0000000011111111-|
D|---0-3---5-5------------------|

Post-Chorus

G|-------------------------------------------------------|
D|-----3-----2------------3------3-----2------------3----|
A|---------------530--035--5---------------530--035------|
D|-00-0--00-0--00---35---0---00-0--00-0--00---35---0-5^7-|

Verse

G|-----------------|
D|------------3----|
A|-0-1-4--0-5------|x3
D|-------0-0-0-5^7-|

G|---------------------|
D|---------------------|
A|-0-1-4-5555-77778888-|
D|---------------------|

Pre-Chorus

G|-----------------------------------------------------------|
D|-----------------------------------------------------------|
A|---------0-5----------0-5-5----------0-5--0000000011111111-|
D|-55-55535-0-0-55-55535-0---0-55-55535-0-0------------------|

Chorus

G|--------------------------------|
D|--------------------------------|
A|-5-----0-----00-030--------53---|x3
D|---0-3---5-5--------3^5-0-0--30-|

G|------------------------------|
D|------------------------------|
A|-5-----0-----0000000011111111-|
D|---0-3---5-5------------------|

Guitar Solo

G|-------------------|
D|-------------------|
A|----0--------------|x2
D|-03--5-5-7\3-5\0-0-|

G|--------------------------------------|
D|--------------------------------------|
A|-00-000-0-11-111-1--------------------|
D|-------------------00-000-0-22-2-33-3-|

G|--------------------------------------|
D|----------------------------22-2-33-3-|
A|-00-000-0-11-111-1--------------------|
D|-------------------00-000-0-----------|

Bridge

G|--------------------------------------|
D|--------------------------------------|
A|-00-000-0-11-111-1--------------------|x3
D|-------------------00-000-0-22-2-33-3-|

G|--------------------------------------|
D|----------------------------22-2-3333-|
A|-00-000-0-11-111-1--------------------|
D|-------------------00-000-0-----------|

Bass Solo

G|-------------------|
D|-------------------|
A|-5--0-----0--------|x4
D|--03-55555-3500000-|

Chorus

G|--------------------------------|
D|--------------------------------|
A|-5-----0-----00-030--------53---|
D|---0-3---5-5--------3^5-0-0--30-|

G|--------------------------------------------------------------|
D|--------------------------------3-----------------------------|
A|-5-----0-----00-030--------53035-535--0----00-030-------53----|
D|---0-3---5-5--------3^5-0-0---------05-5-5--------3^5-00---30-|

G|------------------------------|
D|------------------------------|
A|-5-----0-----0000000011111111-|
D|---0-3---5-5------------------|

Outro

G|-----------------------------------------------------|
D|-----3-----2------------3------3-----2---------------|
A|---------------530--035--5---------------530---------|
D|-00-0--00-0--00---35---0---00-0--00-0--00---35705030-|


| /  slide up
| \  slide down
| h  hammer-on
| p  pull-off
| ~  vibrato
| +  harmonic
| x  muted note
| ^  bend
Suggest correction new What's this?
You can suggest a correction to this tab. Community and Mods will review your correction and vote to approve or reject it.
comments
print report bad tab
1 comment total.
0 reply
HitTheRoad 56 wrote on January 18 2016, 08:25 pm

This is pretty damn good.

guest
You may want to rate the tab now too:
select rating
Please do not post tabs as comments. Select "correction" instead!