Oops, an error
Loading. Please wait.

Devil On My Shoulder Tab

version 2
version 2

Whole song

98,718 views 144 this week
6 commentsread comments
1 2 3 4 5
x 23
add to favorites
launch autoscroll
font size
0
reset
how to read this tab
guitar tuner
Autoscroll
slow
fast
+/-
esc
set tempo
stop
Help us to improve Ultimate-Guitar.com Take our survey!
×
Author
Difficulty
Tuning
intermediate
D A D G B E
Guitar 1 (Ian D'Sa) [note: there is more than one guitar on the recording, my 
newest guitar pro tab has them all].


[Intro]
                        
     S                             E  S  Q    S E  S Q     
E||-------------------------------------------------------|
B||-------------------------------------10-----------8----|
G||--------------------------------------7-----------6----|
D||--------------------------------------x-----------x----|
A||--------------------------------------8-----------7----|
D||--0-----------------------------0--0-------0-0--0------|


    S E  S  S  S S  S  S  S S  S S E.      S E  S  Q    S E  S Q     
E|--------------------------------------|---------------------------|
B|--------------------------------------|---------10-----------8----|
G|--------------------------------------|----------7-----------6----|
D|-------------------------------3------|----------x-----------x----|
A|-------5p-3p-0------------5p-0---5~---|----------8-----------7----|
D|--0-0----------3s-5s-7p-0-------------|--0-0--0-------0-0--0------|


    S E  S  S  S S  S  S  S S  S S E.      S E  S  Q    S E  S Q     
E|--------------------------------------|---------------------------|
B|--------------------------------------|---------10-----------8----|
G|--------------------------------------|----------7-----------6----|
D|-------------------------------3------|----------x-----------x----|
A|-------5p-3p-0------------5p-0---5~---|--0-0--0--8----0-0--0-7----|
D|--0-0----------3s-5s-7p-0-------------|--0-0--0-------0-0--0------|


    S E  S  S  S S  S  S  S S  S S E.      S E  S  Q    S E  S Q     
E|--------------------------------------|---------------------------|
B|--------------------------------------|---------10-----------8----|
G|--------------------------------------|----------7-----------6----|
D|-------------------------------3------|----------x-----------x----|
A|--0-0--5p-3p-0------------5p-0---5~---|--0-0--0--8----0-0--0-7----|
D|--0-0----------3s-5s-7p-0-------------|--0-0--0-------0-0--0------|


                              
    S E  S  S  S S  S  S  S S  S S E.    
E|------------------------------------------------------|
B|------------------------------------------------------|
G|------------------------------------------------------|
D|-------------------------------3----------------------|
A|--0-0--5p-3p-0------------5p-0------------------------|
D|--0-0----------3s-5s-7p-0--------5b-------------------|

[Verse 1]

    Q    E.  S Q    Q       Q    E.  S S  S S  S S E.      Q    E.  S Q  Q   
E|-----------------------|------------------------------|---------------------|
B|--2--------x-3---------|--6---------------------------|--2--------x-3-------|
G|--2--------x-3---------|--6---------------------------|--2--------x-3-------|
D|--2--------x-3---------|--6--------------------3------|--2--------x-3-------|
A|--0--------x-1---------|--4---------------5p-0--------|--0--------x-1-------|
D|-----------------------|-----------0-7p-0--------5b---|---------------------|


    Q    E.  S S  S S  S S E.      Q    S E  S Q    S E  S  
E|------------------------------|--------------------------|
B|--6---------------------------|--2----x-x--x-3----x-x--x-|
G|--6---------------------------|--2----x-x--x-3----x-x--x-|
D|--6--------------------3------|--2----x-x--x-3----x-x--x-|
A|--4---------------5p-0--------|--0----x-x--x-1----x-x--x-|
D|-----------0-7p-0--------5b---|--------------------------|


    Q    S E  S S  S S  S S E.      Q    S E  S Q    S E  S  
E|-------------------------------|--------------------------|
B|--6----x-x---------------------|--2----x-x--x-3----x-x--x-|
G|--6----x-x---------------------|--2----x-x--x-3----x-x--x-|
D|--6----x-x--------------3------|--2----x-x--x-3----x-x--x-|
A|--4----x-x---------5p-0--------|--0----x-x--x-1----x-x--x-|
D|------------0-7p-0--------5b---|--------------------------|

                                                     [Pre-Chorus]


    Q    S E  S S S S S S S S S    S S S S  S  S  S  S S E  S S S S  S  
E|------------------------------|--------------------------------------|
B|--6----x-x--x-6-6-6-6-6-6-6-6-|--8-8-8-8-10-10-10-10-----------------|
G|--6----x-x--x-5-5-5-5-5-5-5-5-|--9-9-9-9-10-10-10-10-----------------|
D|--6----x-x--x-7-7-7-7-7-7-7-7-|--9-9-9-9-10-10-10-10-----------------|
A|--4----x-x--x-5-5-5-5-5-5-5-5-|--7-7-7-7--8--8--8--8-----------------|
D|------------------------------|----------------------5-5--5-5-5-3h-5-|


    S  S E  Q    S E  S S S S  S    S  S S S S E.  S E  S S S S  S  
E|-------------------------------|---------------------------------|
B|----------6--------------------|-------6---6-6-------------------|
G|----------5--------------------|-------5---5-5-------------------|
D|----------7--------------------|-------7---7-7-------------------|
A|-------5--5--------------------|-------5---5-5-------------------|
D|--7p-0---------5-5--5-5-5-3h-5-|--7p-0-----------5-5--5-5-5-3h-5-|


                                                          [Chorus]

    S  S E  Q    S S S S S S S S     S  S  S  S  S  S  S  S E  E  E  E   
E|-------------------------------|--------------------------------------|
B|----------6--------------------|--------------------------6-----------|
G|----------5----9-9-9-9-9-9-9-9-|--10-10-10-10-10-10-10-10-5-----------|
D|----------7----7-7-7-7-7-7-7-7-|---8--8--8--8--8--8--8--8-7--0--3--7--|
A|-------5--5----7-7-7-7-7-7-7-7-|---8--8--8--8--8--8--8--8-5--0--3--7--|
D|--7p-0---------7-7-7-7-7-7-7-7-|---8--8--8--8--8--8--8--8----0--3--7--|


    Q    Q    S E  S  S  S E     S E  S S S E  E  E  E  E   
E|----------------------------|----------------------------|
B|----------------------------|----------------6-----------|
G|----------------------------|----------------5-----------|
D|--5----5----7-7--7-10--7-3--|--0-0--0--------7--0--3--7--|
A|--5----5----7-7--7-10--7-3--|--0-0--0-5-3-0--5--0--3--7--|
D|--5----5----7-7--7-10p-7-3--|--0-0--0-0-0-0-----0--3--7--|


    Q    Q    S E  S  S  S E     S E  S S S E  E  E  E  E   
E|----------------------------|----------------------------|
B|----------------------------|----------------6-----------|
G|----------------------------|----------------5-----------|
D|--5----5----7-7--7-10--7-3--|--0-0--0--------7--0--3--7--|
A|--5----5----7-7--7-10--7-3--|--0-0--0-5-3-0--5--0--3--7--|
D|--5----5----7-7--7-10p-7-3--|--0-0--0-0-0-0-----0--3--7--|


    Q    Q    S E  S  S  S E     S E  S S S E  E  E  E  E   
E|----------------------------|----------------------------|
B|----------------------------|----------------6-----------|
G|----------------------------|----------------5-----------|
D|--5----5----7-7--7-10--7-3--|--0-0--0--------7--0--3--7--|
A|--5----5----7-7--7-10--7-3--|--0-0--0-5-3-0--5--0--3--7--|
D|--5----5----7-7--7-10p-7-3--|--0-0--0-0-0-0-----0--3--7--|


                                                       [Intro Riffs]

    Q    Q    S S S S S S S S     S  S  S  S  S  S  S  S S E  S  Q     
E|----------------------------|---------------------------------------|
B|----------------------------|---------------------------------10----|
G|------------9-9-9-9-9-9-9-9-|--10-10-10-10-10-10-10-10---------7----|
D|--5----5----7-7-7-7-7-7-7-7-|---8--8--8--8--8--8--8--8---------x----|
A|--5----5----7-7-7-7-7-7-7-7-|---8--8--8--8--8--8--8--8-0-0--0--8----|
D|--5----5----7-7-7-7-7-7-7-7-|---8--8--8--8--8--8--8--8-0-0--0-------|


    S E  S Q    S E  S  S  S S  S     S  S S  S S E.   S E  S  Q     
E|---------------------------------|--------------------------------|
B|---------8-----------------------|--------------------------10----|
G|---------6-----------------------|---------------------------7----|
D|---------x-----------------------|------------3--------------x----|
A|--0-0--0-7----0-0--5p-3p-0-------|-------5p-0---5~---0-0--0--8----|
D|--0-0--0------0-0----------3s-5s-|--7p-0-------------0-0--0-------|


                                                     [Verse 2]

    S E  S Q    S E  S  S  S S  S     S  S S  S S E.   Q    E.  S  
E|---------------------------------|------------------------------|
B|---------8-----------------------|-------------------2--------x-|
G|---------6-----------------------|-------------------2--------x-|
D|---------x-----------------------|------------3------2--------x-|
A|--0-0--0-7----0-0--5p-3p-0-------|-------5p-0--------0--------x-|
D|--0-0--0------0-0----------3s-5s-|--7p-0--------5b--------------|


    Q    Q    Q    E.  S    S  S S  S S E.   Q    E.  S    Q    Q    Q    E.S  
E|-----------------------|------------------------------|---------------------|
B|--3---------6----------|-------------------2--------x-|--3---------6--------|
G|--3---------6----------|-------------------2--------x-|--3---------6--------|
D|--3---------6----------|------------3------2--------x-|--3---------6--------|
A|--1---------4----------|-------5p-0--------0--------x-|--1---------4--------|
D|---------------------0-|--7p-0--------5b----------------------------------0-|


    S  S S  S S E.   Q    S E  S    Q    S E  S Q    S E  S  
E|-------------------------------|--------------------------|
B|-------------------2----x-x--x-|--3----x-x--x-6----x-x----|
G|-------------------2----x-x--x-|--3----x-x--x-6----x-x----|
D|------------3------2----x-x--x-|--3----x-x--x-6----x-x----|
A|-------5p-0--------0----x-x--x-|--1----x-x--x-4----x-x----|
D|--7p-0--------5b---------------|------------------------0-|


    S  S S  S S E.   Q    S E  S    Q    S E  S Q    S E  S  
E|-------------------------------|--------------------------|
B|-------------------2----x-x--x-|--3----x-x--x-6----x-x--x-|
G|-------------------2----x-x--x-|--3----x-x--x-6----x-x--x-|
D|------------3------2----x-x--x-|--3----x-x--x-6----x-x--x-|
A|-------5p-0--------0----x-x--x-|--1----x-x--x-4----x-x--x-|
D|--7p-0--------5b---------------|--------------------------|


                                       [Pre-Chorus]

    S S S S S S S S S S S S  S  S  S  S    S E  S S S S  S S  S E  Q     
E|--------------------------------------|-------------------------------|
B|--6-6-6-6-6-6-6-6-8-8-8-8-10-10-10-10-|--------------------------6----|
G|--5-5-5-5-5-5-5-5-9-9-9-9-10-10-10-10-|--------------------------5----|
D|--7-7-7-7-7-7-7-7-9-9-9-9-10-10-10-10-|--------------------------7----|
A|--5-5-5-5-5-5-5-5-7-7-7-7--8--8--8--8-|-----------------------5--5----|
D|--------------------------------------|--5-5--5-5-5-3h-5-7p-0---------|


    S E  S S S S  S S  S E  S E.     S E  S S S S  S S  S E  Q     
E|--------------------------------|-------------------------------|
B|-----------------------6--6-6---|--------------------------6----|
G|-----------------------5--5-5---|--------------------------5----|
D|-----------------------7--7-7---|--------------------------7----|
A|-----------------------5--5-5---|-----------------------5--5----|
D|--5-5--5-5-5-3h-5-7p-0----------|--5-5--5-5-5-3h-5-7p-0---------|


                                           [Chorus]

    S S S S S S S S  S  S  S  S  S  S  S  S    E  E  E  E  Q    Q     
E|------------------------------------------|------------------------|
B|------------------------------------------|--6---------------------|
G|--9-9-9-9-9-9-9-9-10-10-10-10-10-10-10-10-|--5---------------------|
D|--7-7-7-7-7-7-7-7--8--8--8--8--8--8--8--8-|--7--0--3--7--5----5----|
A|--7-7-7-7-7-7-7-7--8--8--8--8--8--8--8--8-|--5--0--3--7--5----5----|
D|--7-7-7-7-7-7-7-7--8--8--8--8--8--8--8--8-|-----0--3--7--5----5----|


    S E  S  S  S E  S E  S S S E     E  E  E  E  Q    Q     
E|--------------------------------|------------------------|
B|--------------------------------|--6---------------------|
G|--------------------------------|--5---------------------|
D|--7-7--7-10--7-3--0-0--0--------|--7--0--3--7--5----5----|
A|--7-7--7-10--7-3--0-0--0-5-3-0--|--5--0--3--7--5----5----|
D|--7-7--7-10p-7-3--0-0--0-0-0-0--|-----0--3--7--5----5----|


    S E  S  S  S E  S E  S S S E     E  E  E  E  Q    Q     
E|--------------------------------|------------------------|
B|--------------------------------|--6---------------------|
G|--------------------------------|--5---------------------|
D|--7-7--7-10--7-3--0-0--0--------|--7--0--3--7--5----5----|
A|--7-7--7-10--7-3--0-0--0-5-3-0--|--5--0--3--7--5----5----|
D|--7-7--7-10p-7-3--0-0--0-0-0-0--|-----0--3--7--5----5----|


    S E  S  S  S E  S E  S S S E     E  E  E  E  Q    Q     
E|--------------------------------|------------------------|
B|--------------------------------|--6---------------------|
G|--------------------------------|--5---------------------|
D|--7-7--7-10--7-3--0-0--0--------|--7--0--3--7--5----5----|
A|--7-7--7-10--7-3--0-0--0-5-3-0--|--5--0--3--7--5----5----|
D|--7-7--7-10p-7-3--0-0--0-0-0-0--|-----0--3--7--5----5----|


                                           [Solo]

    S S S S S S S S  S  S  S  S  S  S  S  S    E    E   E   E   Q      Q      
E|------------------------------------------|--------------------------------|
B|------------------------------------------|--------------10--15~----15~----|
G|--9-9-9-9-9-9-9-9-10-10-10-10-10-10-10-10-|----------10--------------------|
D|--7-7-7-7-7-7-7-7--8--8--8--8--8--8--8--8-|-----/12------------------------|
A|--7-7-7-7-7-7-7-7--8--8--8--8--8--8--8--8-|--------------------------------|
D|--7-7-7-7-7-7-7-7--8--8--8--8--8--8--8--8-|--------------------------------|


     E   E    S  S   S  S  S  S   S  S  S   S  S   S  
E|-----------10--------------------------------------|
B|---L----------13p-10----10-------------------------|
G|------12b------------12----12p-10----12p-10--------|
D|----------------------------------12--------12p-10-|
A|---------------------------------------------------|
D|---------------------------------------------------|


     Q      E   E   Q      S  E.    
E|---------------------------------|
B|-------------10--15~----18-15~---|
G|---------10----------------------|
D|--12~----------------------------|
A|---------------------------------|
D|---------------------------------|


     E   E    S  S   S  S  S  S   S  S E.     S  
E|-----------10---------------------------------|
B|---L----------13p-10----10--------------------|
G|------12b------------12----12p-10-12-Lbr---10-|
D|----------------------------------------------|
A|----------------------------------------------|
D|----------------------------------------------|


    Q.    S   S  Q      S  S S S      Q.     S    S S   S   S  S  S   S   S S  
E|---------------------------------|------------------------------------------|
B|---------------------------------|----------------10h-11p-10----------------|
G|--9~----9h-10-10br----9-10-9-7---|--10~----10h-12------------12-10h-12p-10-7|
D|---------------------------------|------------------------------------------|
A|---------------------------------|------------------------------------------|
D|---------------------------------|------------------------------------------|


    Q.      S   S  Q      S  S S S     Q.       E    S  S   S  S  S   S   S S  
E|---------------------------------|----------------10------------------------|
B|---------------------------------|-------------------13p-10-----------------|
G|--9~------9h-10-10br----9-10-9-7-|--10~------12b------------12-10h-12p-10---|
D|---------------------------------|----------------------------------------12|
A|---------------------------------|------------------------------------------|
D|---------------------------------|------------------------------------------|


[Bridge]

    S S S S S S S S S S S S S S S S    S S S S S S S S S S S S  S  S  S  S  
E|----------------------------------|--------------------------------------|
B|--2-2-2-2-2-2-2-2-3-3-3-3-3-3-----|----------6-6-6-6-8-8-8-8-10-10-10-10-|
G|--2-2-2-2-2-2-2-2-3-3-3-3-3-3-----|----------5-5-5-5-9-9-9-9-10-10-10-10-|
D|--2-2-2-2-2-2-2-2-3-3-3-3-3-3-3-3-|--0-0-0-0-7-7-7-7-9-9-9-9-10-10-10-10-|
A|--0-0-0-0-0-0-0-0-1-1-1-1-1-1-3-3-|--0-0-0-0-5-5-5-5-7-7-7-7--8--8--8--8-|
D|------------------------------3-3-|--0-0-0-0-----------------------------|


    S S S S S S S S S S S S S S S S    S S S S S S S S S S S S  S  S  S  S  
E|----------------------------------|--------------------------------------|
B|--2-2-2-2-2-2-2-2-3-3-3-3-3-3-----|----------6-6-6-6-8-8-8-8-10-10-10-10-|
G|--2-2-2-2-2-2-2-2-3-3-3-3-3-3-----|----------5-5-5-5-9-9-9-9-10-10-10-10-|
D|--2-2-2-2-2-2-2-2-3-3-3-3-3-3-3-3-|--0-0-0-0-7-7-7-7-9-9-9-9-10-10-10-10-|
A|--0-0-0-0-0-0-0-0-1-1-1-1-1-1-3-3-|--0-0-0-0-0-0-0-0-7-7-7-7--8--8--8--8-|
D|------------------------------3-3-|--0-0-0-0-0-0-0-0---------------------|


    S S S S S S S S S S S S S S S S    S S S S S S S S S S S S  S  S  S  S  
E|----------------------------------|--------------------------------------|
B|--2-2-2-2-2-2-2-2-3-3-3-3-3-3-----|----------6-6-6-6-8-8-8-8-10-10-10-10-|
G|--2-2-2-2-2-2-2-2-3-3-3-3-3-3-----|----------5-5-5-5-9-9-9-9-10-10-10-10-|
D|--2-2-2-2-2-2-2-2-3-3-3-3-3-3-3-3-|--0-0-0-0-7-7-7-7-9-9-9-9-10-10-10-10-|
A|--0-0-0-0-0-0-0-0-1-1-1-1-1-1-3-3-|--0-0-0-0-0-0-0-0-7-7-7-7--8--8--8--8-|
D|------------------------------3-3-|--0-0-0-0-0-0-0-0---------------------|


    S S S S S S S S S S S S S S S S    S S S S S S S S S S S S  S  S  S  S       
E|----------------------------------|--------------------------------------|----|
B|--2-2-2-2-2-2-2-2-3-3-3-3-3-3-----|----------6-6-6-6-8-8-8-8-10-10-10-10-|----|
G|--2-2-2-2-2-2-2-2-3-3-3-3-3-3-----|----------5-5-5-5-9-9-9-9-10-10-10-10-|----|
D|--2-2-2-2-2-2-2-2-3-3-3-3-3-3-3-3-|--0-0-0-0-7-7-7-7-9-9-9-9-10-10-10-10-|----|
A|--0-0-0-0-0-0-0-0-1-1-1-1-1-1-3-3-|--0-0-0-0-0-0-0-0-7-7-7-7--8--8--8--8-|----|
D|------------------------------3-3-|--0-0-0-0-0-0-0-0---------------------|----|


                                    [Chorus]

   Bass Line                           E  E  E  E  Q    Q     
E|----|----|----|----|----|----|----|------------------------|
B|----|----|----|----|----|----|----|--6---------------------|
G|----|----|----|----|----|----|----|--5---------------------|
D|----|----|----|----|----|----|----|--7--0--3--7--5----5----|
A|----|----|----|----|----|----|----|--5--0--3--7--5----5----|
D|----|----|----|----|----|----|----|-----0--3--7--5----5----|


    S E  S  S  S E  S E  S S S E     E  E  E  E  Q    Q     
E|--------------------------------|------------------------|
B|--------------------------------|--6---------------------|
G|--------------------------------|--5---------------------|
D|--7-7--7-10--7-3--0-0--0--------|--7--0--3--7--5----5----|
A|--7-7--7-10--7-3--0-0--0-5-3-0--|--5--0--3--7--5----5----|
D|--7-7--7-10p-7-3--0-0--0-0-0-0--|-----0--3--7--5----5----|


    S E  S  S  S E  S E  S S S S S    S S S  S  S S S  S Q    Q     
E|---------------------------------|-------------------------------|
B|---------------------------------|-------------------------------|
G|---------------------------------|-------------------------------|
D|--7-7--7-10--7-3--0-0--0---------|----3--------------7-5----5----|
A|--7-7--7-10--7-3--0-0--0-5-3-0-3-|--5---5p-3p-0-0-3--7-5----5----|
D|--7-7--7-10p-7-3--0-0--0-0-0-0-0-|--0-L-L--L--L-0-3h-7-5----5----|


    S E  S  S  S E  S E  S S S E     E  E  E  E  Q    Q     
E|--------------------------------|------------------------|
B|--------------------------------|--6---------------------|
G|--------------------------------|--5---------------------|
D|--7-7--7-10--7-3--0-0--0--------|--7--0--3--7--5----5----|
A|--7-7--7-10--7-3--0-0--0-5-3-0--|--5--0--3--7--5----5----|
D|--7-7--7-10p-7-3--0-0--0-0-0-0--|-----0--3--7--5----5----|


                                           [Intro Riffs/Conc]

    S S S S S S S S  S  S  S  S  S  S  S  S    S E  S  Q    S E  S Q     
E|------------------------------------------|---------------------------|
B|------------------------------------------|---------10-----------8----|
G|--9-9-9-9-9-9-9-9-10-10-10-10-10-10-10-10-|----------7-----------6----|
D|--7-7-7-7-7-7-7-7--8--8--8--8--8--8--8--8-|----------x-----------x----|
A|--7-7-7-7-7-7-7-7--8--8--8--8--8--8--8--8-|--0-0--0--8----0-0--0-7----|
D|--7-7-7-7-7-7-7-7--8--8--8--8--8--8--8--8-|--0-0--0-------0-0--0------|


    S E  S  S  S S  S  S  S S  S S E.      S E  S  Q    S E  S Q     
E|--------------------------------------|---------------------------|
B|--------------------------------------|---------10-----------8----|
G|--------------------------------------|----------7-----------6----|
D|-------------------------------3------|----------x-----------x----|
A|--0-0--5p-3p-0------------5p-0---5~---|--0-0--0--8----0-0--0-7----|
D|--0-0----------3s-5s-7p-0-------------|--0-0--0-------0-0--0------|


    S E  S  S  S S  S  S  S S S S S E    
E|-------------------------------------||
B|-------------------------------------||
G|-------------------------------------||
D|-------------------------------------||
A|--0-0--5p-3p-0------------------0----||
D|--0-0----------3s-5s-7p-0-5-0-3-0----||




Duration Legend
---------------
W - whole
H - half
Q - quarter
E - 8th
S - 16th
T - 32nd
X - 64th
. - note dotted
|-n-|  - n-tuplets



************************************

| x   Dead note
| h   Hammer-on
| p   Pull-off
| b   Bend
| br  Bend release
| /   Slide up
| ~   Vibrato
| s   Slap
| L   tied note

************************************
Suggest correction
comments
print report bad tab
6 comments total. Showing first comments.
0 reply
Morello is god 20 Jul 10, 2009 12:39 PM

Great Tab man even better song

0 reply
highroller403 10 Aug 03, 2009 06:17 PM

good tab man

-2 reply
greendayfan9 10 Dec 21, 2009 01:03 PM

the first 2 chords in the intro arent it

guest
You may want to rate the tab now too:
select rating
Wanna post a correction for this tab? Suggest correction