Oops, an error
Loading. Please wait.
We have an official Devil On My Shoulder tab made by UG professional guitarists. Check out the tab »
×
6,511 views 3 this week
1 commentread comment
1 2 3 4 5
x 3
add to favorites
launch autoscroll
font size
0
reset
guitar tuner
backing track
0:00
0:00
Autoscroll
slow
fast
+/-
esc
set tempo
stop
Author
Difficulty
Tuning
intermediate
D A D G
Intro:2x
G--------------------------------------------|
D------------------------0---------------3-0-|
A--------8--------7-------3-0----------------|
D-0-0--0---0-0--0---0-0-------3-5-7-3-0------|

Verse:4x     After 1-3x     After 4x
G-----------|-----7--------|-----------------|
D-----------|-5-7-----8-10-|-5-5-5-5-7-7-8-8-|
A-0---1---4-|--------------|-----------------|
D-----------|--------------|-----------------|

Pre-Chorus:1x
G-----------------------------------------|
D-----------------------------------------|
A-------------------5-----------------5-5-|
D-5-5--5-5-5--5-0-0---5-5--5-5-5--5-0-----|

G---------------------------------------|
D---------------------------------------|
A-----------------------0-0-0-0-1-1-1-1-|
D-5-5--5-5-5--5-0-0-0-0-----------------|

Chorus:3x                                  Postchorus:
G----------------------------------------|-------------------------------|
D----------------------------------------|-------------------------------|
A-5--------------------3-0-------5-3-0---|-5-----------------------------|
D---0-3-7-5-5-5-5--7-7-----3-0-0-------3-|---0-3-7-5-5-5-5-7-7-7-7-8-8-8-|

Post-Chorus:2x
Verse:1x
Pre-Chorus:1x
Chorus:3x

Bridge:1x
G--------------------------------------------|
D--------------------------------------------|
A--------------------------------------------|
D-0-3-7-5-5--7-3-5-0-0--0-3-7-5-5--7-3-5-0-0-|

G------------------------------------------|
D------------------------------------------|  6x
A---------------------------55-5-77-7-88-8-|
D-77-7-77-7-88-8-88-8-0-0-0----------------|

Bass Solo

G-----------------------------------------------------------|
D-----------------------------------------------------------|  4x
A---------------------------5-------------------------------|
D-0-0-3-7-5555-7-5-3-5-0000-- 0-3-7-5-5-5-5-5-7-3-5-0-0-0-0-|

Order:

Intro 2X
Verse 4X
Prechorus
Chorus 3X
Postchorus 2X
Verse
PreChorus
Chorus X3
Bridge X6
Bass Solo X4
Chorus X3
Intro (Outro)X2
Suggest correction
Give kudos to tab author, rate the tab!
1 2 3 4 5
comments
print report bad tab
1 comment total.
+1 reply
Andrax20 160 Jan 03, 2011 08:51 AM

Your intro is wrong, it's played on the low D string mostly. try something like this:

Intro:2x
G--------------------------------------------|
D--------------------------------------------|
A--------8--------7------5-3-0---------------|
D-0-0--0---0-0--0---0-0--------0-7-3-0-3-5-0-|

guest
You may want to rate the tab now too:
select rating
Wanna post a correction for this tab? Suggest correction