Oops, an error
Loading. Please wait.

Devil On My Shoulder Tab

version 3
version 3

Whole song

12,120 views 1 this week
5 commentsread comments
1 2 3 4 5
x 5
add to favorites
launch autoscroll
font size
0
reset
how to read this tab
guitar tuner
Autoscroll
slow
fast
+/-
esc
set tempo
stop
Help us to improve Ultimate-Guitar.com Take our survey!
×
Author
Difficulty
Tuning
intermediate
D A D G B E
Date July, 13, 2009
23:49

Awesome Band with an awesome Song hope that ill get it right.


Band : Billy Talent
Album : Billy Talent III
Titel : Devil on my Shoulder
Year : 2009


 

Tuning: Drop D




Intro :


|---------------------|------------------------------|
|-------10---------8--|------------------------------|
|-------7----------x--|------------------------------|
|-------7----------8--|------------------------------|
|-------8----------7--|-------5-3p0---------5h0-8-5--|
|-0-0-0------0-0-0----|-0-0---------3h5/7p0----------| x3


|---------------------|-------------------------------|
|-------10---------8--|-------------------------------|
|-------7----------x--|-------------------------------|
|-------7----------8--|-------------------------------|
|-------8----------7--|-------5-3h0---------5h0-8-----|
|-0-0-0------0-0-0----|-0-0---------3h5/7p0-------5~~-|



Verse :


|------------------|---------------------------|
|-2---------x-3----|-----6---------------------|
|-2---------x-3----|-----6---------------------|
|-2---------x-3----|-----6---------------------|
|-0---------x-1----|-----4-----------5h0-8-----| x2
|------------------|----------0--7h0-------5~~-|


|------------------|---------------------------|
|-2--xxx---3--xxx--|----6--xx------------------|
|-2--xxx---3--xxx--|----6--xx------------------|
|-2--xxx---3--xxx--|----6--xx------------------|
|-0--xxx---1--xxx--|----4--xx--------5h0-8-----|
|------------------|----------0--7h0-------5~~-|


|-----------------------|-------------5--5--5--5--|
|-2----xx--x-3----xx--x-|--6----xx--x-6--6--6--6--|
|-2----xx--x-3----xx--x-|--6----xx--x-5--5--5--5--|
|-2----xx--x-3----xx--x-|--6----xx--x-7--7--7--7--|
|-0----xx--x-1----xx--x-|--4----xx--x-5--5--5--5--|
|-----------------------|-------------------------|


|-------------10-10-10-10-|
|--8--8--8----10-10-10-10-|
|--x--x--x----7--7--7--7--|
|--8--8--8----7--7--7--7--|
|--7--7--7----8--8--8--8--|
|-------------------------|




Pre Chorus :


|----------------------------|------------------------------|----------------------------|
|--------------------------6-|-----------------------6--6-6-|--------------------------6-|
|--------------------------5-|-----------------------5--5-5-|--------------------------5-|
|--------------------------4-|-----------------------4--4-4-|--------------------------4-|
|----------------------5---5-|-----------------------5--5-5-|----------------------5---5-|
|--5-5-5-----5-3h5/7p0-----0-|--5-5-5-----5-3h5/7p0--0--0-0-|--5-5-5-----5-3h5/7p0-----0-|



|-------------------------------------------|
|-------------------------------------------|
|--9-9-9-9-9-9-9-9--10-10-10-10-10-10-10-10-|
|--7-7-7-7-7-7-7-7--8--8--8--8--8--8--8--8--|
|--7-7-7-7-7-7-7-7--8--8--8--8--8--8--8--8--|
|--7-7-7-7-7-7-7-7--8--8--8--8--8--8--8--8--|



Chorus :


|--5---------------|------------------------------|
|--6---------------|------------------------------|
|--5---------------|------------------------------|
|--7-0-3-7-5--5--5-|------------------------------|
|--5-0-3-7-5--5--5-|---------3p0----------5p3p0---|
|----0-3-7-5--5--5-|-7-7-7-7-----3--0---0-------0-|


|--------------------------------------------|
|--------------------------------------------|
|--9-9-9-9-9-9-9-9--10-10-10-10-10-10--------|
|--7-7-7-7-7-7-7-7--8--8--8--8--8--8---------|
|--7-7-7-7-7-7-7-7--8--8--8--8--8--8---------|
|--7-7-7-7-7-7-7-7--8--8--8--8--8--8---12///-|


Verse

Chorus



____________________________________________
So thats it i hope you like it.


Im working right now on the solo !!!
Suggest correction
comments
print report bad tab
5 comments total. Showing first comments.
0 reply
guitarpro15 60 Jul 25, 2009 05:30 PM

Awesome tab

0 reply
KILO6 10 Aug 19, 2009 12:30 AM

nice work it all sounded nice i didnt hear any mistakes. ...keep workin on that solo im lookin forward to playing it.

0 reply
1sheldon 45 Aug 27, 2009 10:02 AM

right outta the book

guest
You may want to rate the tab now too:
select rating
Wanna post a correction for this tab? Suggest correction