Oops, an error
Loading. Please wait.

Diamond On A Landmine Tab

version 1
version 1

Intro

Whole song

Interactive

4,408 views 6 this week
5 commentsread comments
1 2 3 4 5
accurate
x 3
add to favorites
launch autoscroll
font size
0
reset
how to read this tab
guitar tuner
Autoscroll
slow
fast
+/-
esc
set tempo
stop
Help us to improve Ultimate-Guitar.com Take our survey!
×
Author
Tuning
D A D G B E
---------------------------------------------
Billy Talent - Diamond On A Landmine (intro)
---------------------------------------------

From "Billy Talent III" (2009)
Tabbed by frenchdude

Hi all, I'm new here and I'm really fan of Billy Talent since several years ! The new 
is amazingly good and as usual, a lot of interesting guitar work by Ian D'Sa ! Bad side is 
you may know....his unique style can give headaches for tabbing ;-)

So, for my second tab here (my very first was for the song "Hold" by Living Syndication, 
short), be nice and feel free to comment, correct if necessary !

(and forgive me for the eventual english mistakes.. :-s)


Tuning : Drop D (DADGBE)

* = Palm Mute

E|---------------------------------------------------------------|
B|---------------------------------------------------------------|
G|--6---6---4---4---2---2---1---1--------------------------6-----|
D|--------------------0---0---0---0---6--6--7--7--6--4-6-7---7-6-|
A|------------------------------------4--4--4--4--4--------------|
D|----0---0---0---0-------------------4--4--4--4--4--------------|

E|---------------------------------------------------------------|
B|---------------------------------------------------------------|
G|--6---6---4---4---2---2---1---1------------------------6-------|
D|--------------------0---0---0---0---66667777666--4-6-7---7-6---|
A|------------------------------------44444444444----------------|
D|----0---0---0---0-------------------44444444444----------------|
                                      ***********
Suggest correction
What's this?
You can suggest a correction to this tab. Community and Mods will review your correction and vote to approve or reject it.
comments
We did not receive enough feedback on this tab! Please rate:
print report bad tab
1 2 3 4 5
5 comments total. Showing first comments.
0 reply
Treden 11 wrote on July 13 2009, 11:21 am

Hmm, I'd rather play it like that:

E|--------------------------------------------------------------------|
B|--------------------------------------------------------------------|
G|--------------------------------------------------------------------|
D|----11--11--9---9-----------------------6--6--7--7--6---4-6-7---7-6-|
A|---------------------12--12--11--11---------------------------------|
D|------0---0---0---0-----9---9---9---9-----4--4--4--4--4-------------|

E|--------------------------------------------------------------------|
B|--------------------------------------------------------------------|
G|--------------------------------------------------------------------|
D|----11--11--9---9-----------------------66667777666---4-6-7---7-6-----|
A|---------------------12--12--11--11-----44444444444-------------------|
D|------0---0---0---0-----9---9---9---9---44444444444-------------------|
***********

So you play a "B" instead of plaing the higher "D", which comes colser to the original, I think.

0 reply
Zhpd2 36 wrote on July 13 2009, 12:43 pm

I think it should be this:


E|---------------------------------------------------------------|
B|---------------------------------------------------------------|
G|--6---6---4---4---2---2---1---1--------------------------6-----|
D|------------------------------------6--6--7--7--6--4-6-7---7-6-|
A|--------------------2---2---2---2------------------------------|
D|----0---0---0---0--------------------4--4--4--4--4-------------|


This song is the best one of the album, I still don't know the chorus and bridge though...

+1 reply
Zhpd2 36 wrote on July 13 2009, 01:15 pm

I forgot to add something (sry):

This part : should be this:
E|-------------------------|----------------------------|
B|-------------------------|----------------------------|
G|--------6----------------|-----------------6-4--------|
D|--4-6-7---7-6------------|-----------4-6-7-----7------|
A|-------------------------|----------------------------|
D|-------------------------|----------------------------|

Verse: (Theres a little break between every strum, These are strummed upwards.)
E|----------------------------------------------------------|
B|--7---7---7---7---5---5---5---5---5---5-------------------|
G|--6---6---4---4---2---2---1---1---2---2-------------------|
D|----------------------------------------------------------|
A|----------------------------------------------------------|
D|----------------------------------------------------------|

Interlude / Prechorus:
E|-----------------------------|-----------------------------|
B|-----------------------------|-----------------------------|
G|-----------------------6-4---|-----------------------6-4---|
D|-0-0-0-0-0-0-0-0-4-6-7-----7-|-2-2-2-2-2-2-2-2-4-6-7-----7-|
A|-0-0-0-0-0-0-0-0-------------|-2-2-2-2-2-2-2-2-------------|
D|-0-0-0-0-0-0-0-0-------------|-2-2-2-2-2-2-2-2-------------|

E|-----------------|-----------------|--------|---------------|
B|-----------------|-----------------|--------|---------------|
G|-----------------|-----------------|--------|---------------|
D|-7-7-7-7-7-7-7-7-|-9-9-9-9-9-9-9-9-|-11...--|-12...--14...--|
A|-7-7-7-7-7-7-7-7-|-9-9-9-9-9-9-9-9-|-11...--|-12...--14...--|
D|-7-7-7-7-7-7-7-7-|-9-9-9-9-9-9-9-9-|-11...--|-12...--14...--|
Keep on strumming here

Thats all I know... Im really addicted to this song

guest
You may want to rate the tab now too:
select rating
Please do not post tabs as comments. Select "correction" instead!