Oops, an error
Loading. Please wait.

Diamond On A Landmine Tab

version 1
version 1

Whole song

Interactive

59,802 views 57 this week
4 commentsread comments
1 2 3 4 5
excellent!
x 17
add to favorites
launch autoscroll
font size
0
reset
how to read this tab
guitar tuner
Tab Pro tools
  • play this tab
  • loop segment
  • change instrument
  • show fretboard
  • metronome
×
Best way to learn
"Diamond On A Landmine"
Autoscroll
slow
fast
+/-
esc
set tempo
stop
Contributor
Billy Talent - Diamond On A Landmine

Tuning: Droped D

Intro:

e|-----------------|-----------------|-----------------|-----------------|
b|-----------------|-----------------|-----------------|-----------------|
g|-6---6---4---4---|-2---2---1---1---|-----------------|-----------6-4---|
D|-4---4---4---4---|-0---0---0---0---|-6---6---7---7---|-6---4-6-7-4-4-7-|
A|-----------------|---2---2---2-----|-4---4---4---4---|-4---4-4-4-------|
D|---0---0---0---0-|---------------0-|---4---4---4---4-|---4-------------|

PM                                       . . . . . . .   . . . . 
e|-0---------------|-0---------------|-0---------------|-----------------|
b|-7---------------|-2---------------|-0---------------|-----------------|
g|-6---6---4---4---|-2---2---1---1---|-4---------------|-----------6-4---|
D|-4---4---4---4---|-0---0---0---0---|-6-6-6-6-7-7-7-7-|-6-6-4-6-7-4-4-7-|
A|-5---------------|-2-2---2---2-----|-4-4-4-4-4-4-4-4-|-4-4-4-4-4-4-4-4-|
D|-0-0---0---0---0-|---------------0-|-4-4-4-4-4-4-4-4-|-4-4-4-4-4-4-4-4-|


e|-0-0-0-0-0-0-0-0-|-0-0-0-0-0-0-0-0-|-0-0-0-0-0-0-0-0-|-0-0-0-0-0-0-0-0-|
b|-7-7-7-7-7-7-7-7-|-2-2-2-2-2-2-2-2-|-0-0-0-0-0-0-0-0-|-0-0-0-0-0-0-0-0-|
g|-6-6-6-6-4-4-4-4-|-2-2-2-2-1-1-1-1-|-4-4-4-4-4-4-4-4-|-4-4-4-4-4-6-4-4-|  2x
D|-4-4-4-4-4-4-4-4-|-0-0-0-0-0-0-0-0-|-6-6-6-6-7-7-7-7-|-6-6-4-6-7-4-4-7-|
A|-5-5-5-5-5-5-5-5-|-2-2-2-2-2-2-2-2-|-4-4-4-4-4-4-4-4-|-4-4-4-4-4-4-4-4-|
D|-0-0-0-0-0-0-0-0-|-----------------|-4-4-4-4-4-4-4-4-|-4-4-4-4-4-4-4-4-|

Verse:

e|-0---0---0---0---|-0---0---0---0---|-0---0---0---0---|-0---0---0---0---|
b|-7---7---7---7---|-2---2---2---2---|-0---0---0---0---|-0---0---0---0---|
g|-6---6---4---4---|-2---2---1---1---|-4---4---4---4---|-4---4---4---4---|  4x
D|-4---4---4---4---|-0---0---0---0---|-6---6---7---7---|-6---6---7---7---|
A|-5---5---5---5---|-2---2---2---2---|-4---4---4---4---|-4---4---4---4---|
D|-0---0---0---0---|-----------------|-4---4---4---4---|-4---4---4---4---|


e|-0---0---0---0---|-0---0---0---0---|-0---0---0---0---|-0---0-----------|
b|-7---7---7---7---|-2---2---2---2---|-0---0---0---0---|-0---0-----------|
g|-6---6---4---4---|-2---2---1---1---|-4---4---4---4---|-4---4-----6-4---|  
D|-4---4---4---4---|-0---0---0---0---|-6---6---7---7---|-6---6-4-7-4-4-7-|
A|-5---5---5---5---|-2---2---2---2---|-4---4---4---4---|-4---4-4-4-4-4-4-|
D|-0---0---0---0---|-----------------|-4---4---4---4---|-4---4-4-4-4-4-4-|

Pre-Chorus:

PM . . . . . . . .   . . . . .         . . . . . . . .   . . . . .
e|-----------------|-----------------|-----------------|-----------------|
b|-----------------|-----------------|-----------------|-----------------|
g|-----------------|-----------6-4---|-----------------|-----------6-4---|
D|-6-6-6-6-7-7-7-7-|-6-6-4-6-7-0-0-7-|-6-6-6-6-7-7-7-7-|-6-6-4-6-7-4-4-7-|
A|-0-0-0-0-0-0-0-0-|-0-0-0-0-0-0-0-0-|-4-4-4-4-4-4-4-4-|-4-4-4-4-4-4-4-4-|
D|-0-0-0-0-0-0-0-0-|-0-0-0-0-0-0-0-0-|-4-4-4-4-4-4-4-4-|-4-4-4-4-4-4-4-4-|


e|-----------------|---------------------|-----------------|-2-2-2-2-4-4-4-4-|
b|-----------------|---------------------|-3-3-3-3-5-5-5-5-|-3-3-3-3-3-3-3-3-|
g|-----------------|---------------------|-----------------|-----------------|
D|-6-6-6-6-7-7-7-7-|-9-9-9-9-11-11-11-11-|-4-4-4-4-4-4-4-4-|-4-4-4-4-4-4-4-4-|
A|-0-0-0-0-0-0-0-0-|-0-0-0-0-0--0--0--0--|-2-2-2-2-2-2-2-2-|-2-2-2-2-2-2-2-2-|
D|-----------------|---------------------|-----------------|-----------------|

Chorus:

e|-0-0-0-0-0-0-0-0-|-0-0-0-0-0-0-0-0-|-0-0-0-0-0-0-0-0-|-0-0-0-0-0-0-0-0-|
b|-7-7-7-7-7-7-7-7-|-2-2-2-2-2-2-2-2-|-0-0-0-0-0-0-0-0-|-0-0-0-0-0-0-0-0-|
g|-6-6-6-6-4-4-4-4-|-2-2-2-2-1-1-1-1-|-4-4-4-4-4-4-4-4-|-4-4-4-4-4-6-4-4-|  2x
D|-4-4-4-4-4-4-4-4-|-0-0-0-0-0-0-0-0-|-6-6-6-6-7-7-7-7-|-6-6-4-6-7-4-4-7-|
A|-5-5-5-5-5-5-5-5-|-2-2-2-2-2-2-2-2-|-4-4-4-4-4-4-4-4-|-4-4-4-4-4-4-4-4-|
D|-0-0-0-0-0-0-0-0-|-----------------|-4-4-4-4-4-4-4-4-|-4-4-4-4-4-4-4-4-|


Verse:

e|-0---0---0---0---|-0---0---0---0---|-0---0---0---0---|-0---0---0---0---|
b|-7---7---7---7---|-2---2---2---2---|-0---0---0---0---|-0---0---0---0---|
g|-6---6---4---4---|-2---2---1---1---|-4---4---4---4---|-4---4---4---4---|  4x
D|-4---4---4---4---|-0---0---0---0---|-6---6---7---7---|-6---6---7---7---|
A|-5---5---5---5---|-2---2---2---2---|-4---4---4---4---|-4---4---4---4---|
D|-0---0---0---0---|-----------------|-4---4---4---4---|-4---4---4---4---|


e|-0---0---0---0---|-0---0---0---0---|-0---0---0---0---|-0---0-----------|
b|-7---7---7---7---|-2---2---2---2---|-0---0---0---0---|-0---0-----------|
g|-6---6---4---4---|-2---2---1---1---|-4---4---4---4---|-4---4-----6-4---|  
D|-4---4---4---4---|-0---0---0---0---|-6---6---7---7---|-6---6-4-7-4-4-7-|
A|-5---5---5---5---|-2---2---2---2---|-4---4---4---4---|-4---4-4-4-4-4-4-|
D|-0---0---0---0---|-----------------|-4---4---4---4---|-4---4-4-4-4-4-4-|


Pre-Chorus:

PM . . . . . . . .   . . . . .         . . . . . . . .   . . . . .
e|-----------------|-----------------|-----------------|-----------------|
b|-----------------|-----------------|-----------------|-----------------|
g|-----------------|-----------6-4---|-----------------|-----------6-4---|
D|-6-6-6-6-7-7-7-7-|-6-6-4-6-7-0-0-7-|-6-6-6-6-7-7-7-7-|-6-6-4-6-7-4-4-7-|
A|-0-0-0-0-0-0-0-0-|-0-0-0-0-0-0-0-0-|-4-4-4-4-4-4-4-4-|-4-4-4-4-4-4-4-4-|
D|-0-0-0-0-0-0-0-0-|-0-0-0-0-0-0-0-0-|-4-4-4-4-4-4-4-4-|-4-4-4-4-4-4-4-4-|


e|-----------------|---------------------|-----------------|-2-2-2-2-4-4-4-4-|
b|-----------------|---------------------|-3-3-3-3-5-5-5-5-|-3-3-3-3-3-3-3-3-|
g|-----------------|---------------------|-----------------|-----------------|
D|-6-6-6-6-7-7-7-7-|-9-9-9-9-11-11-11-11-|-4-4-4-4-4-4-4-4-|-4-4-4-4-4-4-4-4-|
A|-0-0-0-0-0-0-0-0-|-0-0-0-0-0--0--0--0--|-2-2-2-2-2-2-2-2-|-2-2-2-2-2-2-2-2-|
D|-----------------|---------------------|-----------------|-----------------|


Chorus:

e|-0-0-0-0-0-0-0-0-|-0-0-0-0-0-0-0-0-|-0-0-0-0-0-0-0-0-|-0-0-0-0-0-0-0-0-|
b|-7-7-7-7-7-7-7-7-|-2-2-2-2-2-2-2-2-|-0-0-0-0-0-0-0-0-|-0-0-0-0-0-0-0-0-|
g|-6-6-6-6-4-4-4-4-|-2-2-2-2-1-1-1-1-|-4-4-4-4-4-4-4-4-|-4-4-4-4-4-6-4-4-|  2x
D|-4-4-4-4-4-4-4-4-|-0-0-0-0-0-0-0-0-|-6-6-6-6-7-7-7-7-|-6-6-4-6-7-4-4-7-|
A|-5-5-5-5-5-5-5-5-|-2-2-2-2-2-2-2-2-|-4-4-4-4-4-4-4-4-|-4-4-4-4-4-4-4-4-|
D|-0-0-0-0-0-0-0-0-|-----------------|-4-4-4-4-4-4-4-4-|-4-4-4-4-4-4-4-4-|


e|-0-0-0-0-0-0-0-0-|-0-0-0-0-0-0-0-0-|-0-0-0-0-0-0-0-0-|-----------------|
b|-7-7-7-7-7-7-7-7-|-2-2-2-2-2-2-2-2-|-0-0-0-0-0-0-0-0-|-5-5-5-5-5-5-5-5-|
g|-6-6-6-6-4-4-4-4-|-2-2-2-2-1-1-1-1-|-4-4-4-4-4-4-4-4-|-6-6-6-6-6-6-6-6-|
D|-4-4-4-4-4-4-4-4-|-0-0-0-0-0-0-0-0-|-6-6-6-6-7-7-7-7-|-6-6-6-6-7-7-7-7-|
A|-5-5-5-5-5-5-5-5-|-2-2-2-2-2-2-2-2-|-4-4-4-4-4-4-4-4-|-0-0-0-0-0-0-0-0-|
D|-0-0-0-0-0-0-0-0-|-----------------|-4-4-4-4-4-4-4-4-|-----------------|


e|-----------------|-2-2-2-2-4-4-4-4-|-----------------|-5-5-5-5-7-7-7-7-|
b|-3-3-3-3-5-5-5-5-|-3-3-3-3-3-3-3-3-|-7-7-7-7-9-9-9-9-|-----------------|
g|-----------------|-----------------|-----------------|-----------------|
D|-4-4-4-4-4-4-4-4-|-4-4-4-4-4-4-4-4-|-7-7-7-7-7-7-7-7-|-7-7-7-7-7-7-7-7-|
A|-2-2-2-2-2-2-2-2-|-2-2-2-2-2-2-2-2-|-5-5-5-5-5-5-5-5-|-5-5-5-5-5-5-5-5-|
D|-----------------|-----------------|-----------------|-----------------|


Bridge:

e|-0-----0-0-----0-|-0-----0-0-----0-|-0-----0-0-------|---------------0-|
b|-0-----0-0-----0-|-0-----0-0-----0-|-0-----0-0-----7-|-7-----7-7-----0-|
g|-----------------|-----------------|---------------6-|-6-----4-4-------|  2x
D|-6-----7-7-----6-|-6-----7-7-----6-|-6-----7-7-----4-|-4-----4-4-----6-|
A|-2-----2-2-----2-|-2-----2-2-----4-|-4-----4-4-----5-|-5-----5-5-----2-|
D|-2-----2-2-----2-|-2-----2-2-----4-|-4-----4-4-----0-|-0-----0-0-----2-|


e|-0-0---0-0-0---0-|-0-0---0-0-0---0-|-0-0---0-0-0-----|-----------------|
b|-0-0---0-0-0---0-|-0-0---0-0-0---0-|-0-0---0-0-0---7-|-7-7---7-7-7---3-|
g|-----------------|-----------------|---------------6-|-6-6---4-4-4-----|
D|-6-6---7-7-7---6-|-6-6---7-7-7---6-|-6-6---7-7-7---4-|-4-4---4-4-4---4-|
A|-2-2---2-2-2---2-|-2-2---2-2-2---2-|-4-4---4-4-4---5-|-5-5---5-5-5---0-|
D|-2-2---2-2-2---2-|-2-2---2-2-2---2-|-4-4---4-4-4---0-|-0-0---0-0-0-----|


e|-----------------|-2-2-2-2-4-4-4-4-|-----------------|-5-5-5-5-7-7-7-7-|
b|-3-3-3-3-5-5-5-5-|-3-3-3-3-3-3-3-3-|-7-7-7-7-9-9-9-9-|-----------------|
g|-----------------|-----------------|-----------------|-----------------|
D|-4-4-4-4-4-4-4-4-|-4-4-4-4-4-4-4-4-|-7-7-7-7-7-7-7-7-|-7-7-7-7-7-7-7-7-|
A|-2-2-2-2-2-2-2-2-|-2-2-2-2-2-2-2-2-|-5-5-5-5-5-5-5-5-|-5-5-5-5-5-5-5-5-|
D|-----------------|-----------------|-----------------|-----------------|


e|-----0-----------|-----------------|-----0-----------|-----------------|
b|-----7-----------|-----------------|-----0-----------|-----------------|
g|-----6-----------|-----------6p4---|-----4-----------|-----------6p4---|  2x
D|-----4-----------|-----4h6h7-----7-|-----6-----------|-----4h6h7-----7-|
A|-----5-----------|-----------------|-----4-----------|-----------------|
D|---0-0-----------|-----------------|---4-4-----------|-----------------|

PM . . . . .     .   . . . . .         . . . . . .   .   . . . . .   . .
e|-----------------|-----------------|-----------------|-----------------|
b|-----------------|-----------------|-----------------|-----------------|  
g|-----------------|-----------6-4---|-----------------|-----------6-4---|  2x
D|-6---6---7-6-----|-6---4-6-7-----7-|-6---6---7-6-----|-6---4-6-7-----7-|
A|-------------7---|-----------------|-------------7---|-----------------|
D|---0---0-------0-|---0-------------|---4---4-------4-|---4-------------|


PM . . . . . . . .   . . . . .         . . . . . . . .   . . . . .
e|-----------------|-----------------|-----------------|-----------------|
b|-----------------|-----------------|-----------------|-----------------|
g|-----------------|-----------6-4---|-----------------|-----------6-4---|
D|-6---6---7-6-----|-6-6-4-6-7-0-0-7-|-6---6---7-6-----|-6-6-4-6-7-4-4-7-|
A|-0-0-0-0-0-0-7-0-|-0-0-0-0-0-0-0-0-|-4-4-4-4-4-4-7-4-|-4-4-4-4-4-4-4-4-|
D|-0-0-0-0-0-0-0-0-|-0-0-0-0-0-0-0-0-|-4-4-4-4-4-4-4-4-|-4-4-4-4-4-4-4-4-|


e|-----------------|---------------------|-----------------|-2-2-2-2-4-4-4-4-|
b|-----------------|---------------------|-3-3-3-3-5-5-5-5-|-3-3-3-3-3-3-3-3-|
g|-6-6-6-6-6-6-6-6-|-7-7-7-7-9--9--9--9--|-----------------|-----------------|
D|-6-6-6-6-7-7-7-7-|-9-9-9-9-11-11-11-11-|-4-4-4-4-4-4-4-4-|-4-4-4-4-4-4-4-4-|
A|-0-0-0-0-0-0-0-0-|-0-0-0-0-0--0--0--0--|-2-2-2-2-2-2-2-2-|-2-2-2-2-2-2-2-2-|
D|-----------------|---------------------|-----------------|-----------------|



Chorus:

e|-0-0-0-0-0-0-0-0-|-0-0-0-0-0-0-0-0-|-0-0-0-0-0-0-0-0-|-0-0-0-0-0-0-0-0-|
b|-7-7-7-7-7-7-7-7-|-2-2-2-2-2-2-2-2-|-0-0-0-0-0-0-0-0-|-0-0-0-0-0-0-0-0-|
g|-6-6-6-6-4-4-4-4-|-2-2-2-2-1-1-1-1-|-4-4-4-4-4-4-4-4-|-4-4-4-4-4-6-4-4-|  2x
D|-4-4-4-4-4-4-4-4-|-0-0-0-0-0-0-0-0-|-6-6-6-6-7-7-7-7-|-6-6-4-6-7-4-4-7-|
A|-5-5-5-5-5-5-5-5-|-2-2-2-2-2-2-2-2-|-4-4-4-4-4-4-4-4-|-4-4-4-4-4-4-4-4-|
D|-0-0-0-0-0-0-0-0-|-----------------|-4-4-4-4-4-4-4-4-|-4-4-4-4-4-4-4-4-|


e|-0-0-0-0-0-0-0-0-|-0-0-0-0-0-0-0-0-|-0-0-0-0-0-0-0-0-|-----------------|
b|-7-7-7-7-7-7-7-7-|-2-2-2-2-2-2-2-2-|-0-0-0-0-0-0-0-0-|-5-5-5-5-5-5-5-5-|
g|-6-6-6-6-4-4-4-4-|-2-2-2-2-1-1-1-1-|-4-4-4-4-4-4-4-4-|-6-6-6-6-6-6-6-6-|
D|-4-4-4-4-4-4-4-4-|-0-0-0-0-0-0-0-0-|-6-6-6-6-7-7-7-7-|-6-6-6-6-7-7-7-7-|
A|-5-5-5-5-5-5-5-5-|-2-2-2-2-2-2-2-2-|-4-4-4-4-4-4-4-4-|-0-0-0-0-0-0-0-0-|
D|-0-0-0-0-0-0-0-0-|-----------------|-4-4-4-4-4-4-4-4-|-----------------|


e|-----------------|-2-2-2-2-4-4-4-4-|-----------------|-5-5-5-5-7-7-7-7-|
b|-3-3-3-3-5-5-5-5-|-3-3-3-3-3-3-3-3-|-7-7-7-7-9-9-9-9-|-----------------|
g|-----------------|-----------------|-----------------|-----------------|
D|-4-4-4-4-4-4-4-4-|-4-4-4-4-4-4-4-4-|-7-7-7-7-7-7-7-7-|-7-7-7-7-7-7-7-7-|
A|-2-2-2-2-2-2-2-2-|-2-2-2-2-2-2-2-2-|-5-5-5-5-5-5-5-5-|-5-5-5-5-5-5-5-5-|
D|-----------------|-----------------|-----------------|-----------------|


e|-0-0-0-0-0-0-0-0-|-0-0-0-0-0-0-0-0-|-0-0-0-0-0-0-0-0-|-0-0-0-0-0-0-0-0-|
b|-7-7-7-7-7-7-7-7-|-2-2-2-2-2-2-2-2-|-0-0-0-0-0-0-0-0-|-0-0-0-0-0-0-0-0-|
g|-6-6-6-6-4-4-4-4-|-2-2-2-2-1-1-1-1-|-4-4-4-4-4-4-4-4-|-4-4-4-4-4-6-4-4-|  2x
D|-4-4-4-4-4-4-4-4-|-0-0-0-0-0-0-0-0-|-6-6-6-6-7-7-7-7-|-6-6-4-6-7-4-4-7-|
A|-5-5-5-5-5-5-5-5-|-2-2-2-2-2-2-2-2-|-4-4-4-4-4-4-4-4-|-4-4-4-4-4-4-4-4-|
D|-0-0-0-0-0-0-0-0-|-----------------|-4-4-4-4-4-4-4-4-|-4-4-4-4-4-4-4-4-|


e|-0-0-0-0-0-0-0-0-|-0-0-0-0-0-0-0-0-|-0-0-0-0-0-0-0-0-|-----------------|
b|-7-7-7-7-7-7-7-7-|-2-2-2-2-2-2-2-2-|-0-0-0-0-0-0-0-0-|-5-5-5-5-5-5-5-5-|
g|-6-6-6-6-4-4-4-4-|-2-2-2-2-1-1-1-1-|-4-4-4-4-4-4-4-4-|-6-6-6-6-6-6-6-6-|
D|-4-4-4-4-4-4-4-4-|-0-0-0-0-0-0-0-0-|-6-6-6-6-7-7-7-7-|-6-6-6-6-7-7-7-7-|
A|-5-5-5-5-5-5-5-5-|-2-2-2-2-2-2-2-2-|-4-4-4-4-4-4-4-4-|-0-0-0-0-0-0-0-0-|
D|-0-0-0-0-0-0-0-0-|-----------------|-4-4-4-4-4-4-4-4-|-----------------|


e|-----------------|-2-2-2-2-4-4-4-4-|-----------------|-5-5-5-5-7-7-7-7-|
b|-3-3-3-3-5-5-5-5-|-3-3-3-3-3-3-3-3-|-7-7-7-7-9-9-9-9-|-----------------|
g|-----------------|-----------------|-----------------|-----------------|
D|-4-4-4-4-4-4-4-4-|-4-4-4-4-4-4-4-4-|-7-7-7-7-7-7-7-7-|-7-7-7-7-7-7-7-7-|
A|-2-2-2-2-2-2-2-2-|-2-2-2-2-2-2-2-2-|-5-5-5-5-5-5-5-5-|-5-5-5-5-5-5-5-5-|
D|-----------------|-----------------|-----------------|-----------------|


End:

e|-9---------------|
b|-7---------------|
g|-7---------------|
D|-0---------------|
A|-0---------------|
D|-0---------------|

have fun! :)
comments
print report bad tab
4 comments total. Showing first comments.
0 reply
Free2Live wrote on July 30 2009, 06:52 pm

thanks for the intro, been havin trouble with it

+1 reply
cooper665 wrote on October 31 2009, 05:25 pm

this is jst copied frm the book/poster/leaflet/thing

0 reply
sixstringdealey wrote on October 4 2010, 02:44 am

this is a pretty good tab. i learned the song with it, but there's a couple bits that can be played a lot easier than listed above.


e|-----------------|-2-2-2-2-4-4-4-4-|-----------------|---------7-7-7-7-|
b|-3-3-3-3-5-5-5-5-|-3-3-3-3-3-3-3-3-|-7-7-7-7-9-9-9-9-|-101010107-7-7-7-|
g|-2-2-2-2-2-2-2-2-|-2-2-2-2-2-2-2-2-|-7-7-7-7-7-7-7-7-|-7-7-7-7-7-7-7-7-|
D|-4-4-4-4-4-4-4-4-|-4-4-4-4-4-4-4-4-|-7-7-7-7-7-7-7-7-|-7-7-7-7-7-7-7-7-|
A|-2-2-2-2-2-2-2-2-|-2-2-2-2-2-2-2-2-|-----------------|-----------------|
D|-----------------|-----------------|-0-0-0-0-0-0-0-0-|-0-0-0-0-0-0-0-0-|
wai -ting to ex -plode~


the 2nd fret on the G string rings through with the rest of the b chord nicely and the barred D chord is a lot easier to play. you get a lower bass note and i'm not sure if that's how he does it, but it sounds a lot fuller aswell. you can also let the open a ring out through this chord, if you like.


e|-0-----0-0-----0-|-0-----0-0-----0-|-0-----0-0-------|---------------0-|
b|-0-----0-0-----0-|-0-----0-0-----0-|-0-----0-0-----7-|-7-----7-7-----0-|
g|-1-----2-2-------|-----------------|---------------6-|-6-----4-4-------| 2x
D|-2-----2-2-----6-|-6-----7-7-----6-|-6-----7-7-----4-|-4-----4-4-----6-|
A|-2-----2-2-----2-|-2-----2-2-----4-|-4-----4-4-----5-|-5-----5-5-----2-|
D|-2-----2-2-----2-|-2-----2-2-----4-|-4-----4-4-----0-|-0-----0-0-----2-|
were dancin'on thin ice before~


use your thumb to hold the 2nd fret of the low D string down for the first chord and you'll find this is a much easier and more comfortable way to play the exact same notes, with the addition of the 2nd fret on the A string being rung out during the alternate chord for a slightly fuller sound than the strange original E chord in the tab above.

i'm playing this one acoustic so these little details are important to me haha. :P hope this helps.

I want to post or [tab]
guest
You may want to rate the tab now too:
select rating
Please do not post tabs as comments. Select "correction" instead!