Oops, an error
Loading. Please wait.

Diamond On A Landmine Bass Tab

version 2
version 2

Whole song

Interactive

9,775 views 6 this week
2 commentsread comments
1 2 3 4 5
excellent!
x 8
add to favorites
launch autoscroll
font size
0
reset
guitar tuner
Tab Pro tools
  • play this tab
  • loop segment
  • change instrument
  • show fretboard
  • metronome
×
Best way to learn
"Diamond On A Landmine"
Autoscroll
slow
fast
+/-
esc
set tempo
stop
Contributor
Difficulty
Tuning
intermediate
D A D G B E
tabbed by tony d

Intro:1x
G-------------------------------------|
D-------------------------------------|
A-----------2(ring)-------------------|
D-0(ring)------------4444444444444444-|
                                           After 2x
G-----------------------------------------|--------------|
D-----------------------------------------|--------------| Play 2x
A----------0-22222222---------------------|-------4-2-0--|
D-00000000------------2-444-444-2-444-444-|-4-6-7--------|

Verse:1x
G----------------|
D----------------| Play 3x
A-----22---------|
D-00------44--44-|

G-------------------------------------------------|
D-------------------------------------------------| Play 2x
A--------------0-22(ring)-------------------------|
D-00-0(ring)----------------2-44(ring)-2-44(ring)-|


Pre-Chorus:1x
G------------------------------------------------------------------------|
D------------------------------------------------------------------------|
A----------------------------------------------------2222-4444-5555-7777-|
D-0000000000000000-4444444444444444-7777777777777777---------------------|

Chorus:2x                                 After 2x
G-----------------------------------------|-------------|
D-----------------------------------------|-------------| Play 2x
A----------0-22222222---------------------|-------------|
D-00000000------------2-4444444-2-4444444-|-4-6-7-4-6-7-|

Verse:1x
Pre-Chorus:1x
Chorus:3x

3rd Bar of 2nd Chorus:1x
G---------------------------------------------------------------------------|
D---------------------------------------------------------------------------|
A----------0-22222222----------------------2222-4444-5555-7777-555555555555-|
D-00000000------------2-4444444-2-77777777----------------------------------|

Post-Chorus:1x
G----------------------------------------|
D--------------------------------| Play--| 2x
A----------------------------------------|
D-2--22--22--22--44--44--00--000---------|

G------------------------------------------------------------------------|
D------------------------------------------------------------------------|
A---------------------------------------2222-4444-5555-7777-555555555555-|
D-22--222--222--222--444--444--000--000----------------------------------|


Post-Bridge:1x
G-----------------------------------------------------------------------------------|
D-----------------------------------------------------------------------------------|
A-----------------------------------------------------------------------------------|
D-0(ring)--4(ring)--0(ring)--4(ring)-00-0--00-0--44-4--44-4--00-0--00-0--44-4--44-4-|

Pre-Chorus:1x
2nd Chorus:6x

Outro:1x
G---------|
D---------|
A---------|
D-0(ring)-|
comments
print report bad tab
2 comments total.
-1 reply
Matyas.Jouza wrote on August 8 2013, 10:46 pm

I'm pretty sure it's not 0 at the end ring but 12.

0 reply
Brunohbrassard wrote on June 14 2015, 06:52 pm

Intro:1x
G-------------------------------------|
D-------------------------------------|
A-----------2(ring)-------------------|
D-0(ring)------------4444444444444444-|

G-----------------------------------------|
D-----------------------------------------| Play 2x
A----------0-22222222---------------------|
D-00000000------------2-444-444-2-444-444-|

Verse:1x
G----------------|
D----------------| Play 3x
A-----22---------|
D-00------44--44-|

G-------------------------------------------------|
D-------------------------------------------------| Play 2x
A--------------0-22(ring)-------------------------|
D-00-0(ring)----------------2-44(ring)-2-44(ring)-|

Pre-Chorus:1x
G------------------------------------------------------------------------|
D------------------------------------------------------------------------|
A----------------------------------------------------2222-4444-5555-7777-|
D-0000000000000000-4444444444444444-7777777777777777---------------------|

1st Chorus: 2x
G-----------------------------------------|
D-----------------------------------------|
A----------0-22222222---------------------|
D-00000000------------2-4444444-2-4444444-|

Verse:1x
Pre-Chorus:1x

2nd Chorus: 2x
G-----------------------------------------|
D-----------------------------------------|
A----------0-22222222---------------------|
D-00000000------------2-4444444-2-4444444-|

2nd Chorus: 1x
G---------------------------------------------------------------------------|
D---------------------------------------------------------------------------|
A----------0-22222222----------------------2222-4444-5555-7777-555555555555-|
D-00000000------------2-4444444-2-77777777----------------------------------|

Post-Chorus:1x
G----------------------------------------|
D--------------------------------| Play--| 2x
A----------------------------------------|
D-2--22--22--22--44--44--00--000---------|

G------------------------------------------------------------------------|
D------------------------------------------------------------------------|
A---------------------------------------2222-4444-5555-7777-555555555555-|
D-22--222--222--222--444--444--000--000----------------------------------|

Post-Bridge:1x
G-----------------------------------------------------------------------------------|
D-----------------------------------------------------------------------------------|
A-----------------------------------------------------------------------------------|
D-0(ring)--4(ring)--0(ring)--4(ring)-00-0--00-0--44-4--44-4--00-0--00-0--44-4--44-4-|

Pre-Chorus: 1x

3rd Chorus: 2x
G-----------------------------------------|
D-----------------------------------------|
A----------0-22222222---------------------|
D-00000000------------2-4444444-2-4444444-|

3rd Chorus: 1x
G---------------------------------------------------------------------------|
D---------------------------------------------------------------------------|
A----------0-22222222----------------------2222-4444-5555-7777-555555555555-|
D-00000000------------2-4444444-2-4444444----------------------------------|

Outro: 2x
G-----------------------------------------|
D-----------------------------------------|
A----------0-22222222---------------------|
D-00000000------------2-4444444-2-4444444-|

G---------------------------------------------------------------------------|
D---------------------------------------------------------------------------|
A----------0-22222222----------------------2222-4444-5555-7777-555555555555-|
D-00000000------------2-4444444-2-4444444-----------------------------------|

Final Note:
G---------|
D---------|
A---------|
D-0(ring)-|

At the end, some of you may hear something like D-1-0~~-| But what you hear is the kick, then the bass goes on with a 0 (ring).

I want to post or [tab]
guest
You may want to rate the tab now too:
select rating
Please do not post tabs as comments. Select "correction" instead!