Oops, an error
Loading. Please wait.

Diamond On A Landmine Tab

version 2
version 2

Whole song

Interactive

5,096 views 6 this week
1 commentread comment
1 2 3 4 5
x 3
add to favorites
launch autoscroll
font size
0
reset
how to read this tab
guitar tuner
Autoscroll
slow
fast
+/-
esc
set tempo
stop
Help us to improve Ultimate-Guitar.com Take our survey!
×
Author
Difficulty
Tuning
intermediate
D A D G B E
Artist: Billy Talent
Track: Diamond on a Landmine
Album: III
Tuning: Drop D [D-A-D-G-B-e]

Heads-up: The A chord in the pre-chorus is NOT a powerchord. There is no 5th in it.

Intro
e|-----------------------------------------------------------------------|
B|-----------------------------------------------------------------------|
G|-----------------------------------------------------------------6-4---|
D|-11---11---9---9-----------------------6---6---7---7---6---4-6-7-----7-|
A|-------------------12---12---11---11-----------------------------------|
D|----0----0---0---0----9----9----9----9---4---4---4---4---4-------------|

e|-----------------------------------------------------------------------|
B|-----------------------------------------------------------------------|
G|-----------------------------------------------------------------6-4---|
D|-11---11---9---9-----------------------6-6-6-6-7-7-7-7-6-6-4-6-7-------|
A|-------------------12---12---11---11---4-4-4-4-4-4-4-4-4-4-------------|
D|----0----0---0---0----9----9----9----9-4-4-4-4-4-4-4-4-4-4-------------|
                                                     . . . . . . . . . .

Second guitar comes in on second bar:
e|-0---------------0---------------0-------------------------------------|
B|-2---------------2---------------2-------------------------------------|
G|-2---------------2---------------2-------------------------------------|
D|-0---------------x---------------4-------------------------------------|
A|-----------------2-----------------------------------------------------|
D|-----------------------------------------------------------------------|

e|-------------------------0-0-0-----------------------------------|
B|-----------------2---2---2-2-2---5-5-5-5-5-5-5-5-5-5-5-5-5-5-5-5-|
G|-6---6---4-4-4---2---2---1-1-1---6-6-6-6-6-6-6-6-6-6-6-6-x-6-4-x-|
D|-0---0---0-0-0---x---x---x-x-x---6-6-6-6-7-7-7-7-6-6-6-6-4-4-x-7-| x2
A|-0---0---0-0-0---2---2---2-2-2---4-4-4-4-4-4-4-4-4-4-4-4-4-4-4-4-|
D|-0---0---0-0-0-------------------4-4-4-4-4-4-4-4-4-4-4-4-4-4-4-4-|


Verse (x5)
e|-------------------------0---0---0---0---0---0---0---0---0---0---|
B|-7---7---7---7---2---2---x---x---2---2---2---2---2---2---2---2---|
G|-6---6---4---4---2---2---1---1---1---1---2---2---1---1---2---2---|
D|-0---0---0---0---x---x---x---x---4---4---4---4---4---4---4---4---|
A|-----------------2---2---2---2-----------------------------------|
D|-----------------------------------------------------------------|


Pre-Chorus
e|-----------------------------------------------------------------|
B|-----------------------------------------------------------------|
G|---------------------------6-4-----------------------------6-4---|
D|-0-0-0-0-7-7-7-7-6-6-6-6-4-----7-4-4-4-4-7-7-7-7-6-6-4-6-7-----7-|
A|-0-0-0-0-0-0-0-0-0-0-0-0-0-------4-4-4-4-4-4-4-4-4-4-4-----------|
D|-0-0-0-0-0-0-0-0-0-0-0-0-0-------4-4-4-4-4-4-4-4-4-4-4-----------|
   . . . . . . . . . . . .         . . . . . . . . . . 

e|-----------------------------------------------------------------|
B|---------------------------------3-3-3-3-5-5-5-5-7-7-7-7-9-9-9-9-|
G|---------------------------------4-4-4-4-6-6-6-6-7-7-7-7-9-9-9-9-|
D|-7-7-7-7-7-7-7-7-7-7-7-7-7-7-7-7-x-x-x-x-x-x-x-x-x-x-x-x-x-x-x-x-|
A|-0-0-0-0-0-0-0-0-0-0-0-0-0-0-0-0-2-2-2-2-4-4-4-4-5-5-5-5-7-7-7-7-|
D|-----------------------------------------------------------------|


Chorus (x2)
e|-------------------------0-0-0-----------------------------------|
B|-----------------2---2---2-2-2---5-5-5-5-5-5-5-5-5-5-5-5-5-5-5-5-|
G|-6---6---4-4-4---2---2---1-1-1---6-6-6-6-6-6-6-6-6-6-6-6-x-6-4-x-|
D|-0---0---0-0-0---x---x---x-x-x---6-6-6-6-7-7-7-7-6-6-6-6-4-4-x-7-|
A|-0---0---0-0-0---2---2---2-2-2---4-4-4-4-4-4-4-4-4-4-4-4-4-4-4-4-|
D|-0---0---0-0-0-------------------4-4-4-4-4-4-4-4-4-4-4-4-4-4-4-4-|


Verse (x5)
e|-------------------------0---0---0---0---0---0---0---0---0---0---|
B|-7---7---7---7---2---2---x---x---2---2---2---2---2---2---2---2---|
G|-6---6---4---4---2---2---1---1---1---1---2---2---1---1---2---2---|
D|-0---0---0---0---x---x---x---x---4---4---4---4---4---4---4---4---|
A|-----------------2---2---2---2-----------------------------------|
D|-----------------------------------------------------------------|


Pre-Chorus
e|-----------------------------------------------------------------|
B|-----------------------------------------------------------------|
G|---------------------------6-4-----------------------------6-4---|
D|-0-0-0-0-7-7-7-7-6-6-6-6-4-----7-4-4-4-4-7-7-7-7-6-6-4-6-7-----7-|
A|-0-0-0-0-0-0-0-0-0-0-0-0-0-------4-4-4-4-4-4-4-4-4-4-4-----------|
D|-0-0-0-0-0-0-0-0-0-0-0-0-0-------4-4-4-4-4-4-4-4-4-4-4-----------|
   . . . . . . . . . . . .         . . . . . . . . . . 

e|-----------------------------------------------------------------|
B|---------------------------------3-3-3-3-5-5-5-5-7-7-7-7-9-9-9-9-|
G|---------------------------------4-4-4-4-6-6-6-6-7-7-7-7-9-9-9-9-|
D|-7-7-7-7-7-7-7-7-7-7-7-7-7-7-7-7-x-x-x-x-x-x-x-x-x-x-x-x-x-x-x-x-|
A|-0-0-0-0-0-0-0-0-0-0-0-0-0-0-0-0-2-2-2-2-4-4-4-4-5-5-5-5-7-7-7-7-|
D|-----------------------------------------------------------------|


Chorus
e|-------------------------0-0-0-----------------------------------|
B|-----------------2---2---2-2-2---5-5-5-5-5-5-5-5-5-5-5-5-5-5-5-5-|
G|-6---6---4-4-4---2---2---1-1-1---6-6-6-6-6-6-6-6-6-6-6-6-x-6-4-x-|
D|-0---0---0-0-0---x---x---x-x-x---6-6-6-6-7-7-7-7-6-6-6-6-4-4-4-7-| x2
A|-0---0---0-0-0---2---2---2-2-2---4-4-4-4-4-4-4-4-4-4-4-4-4-4-4-4-|
D|-0---0---0-0-0-------------------4-4-4-4-4-4-4-4-4-4-4-4-4-4-4-4-|

e|-------------------------0-0-0-----------------------------------|
B|-----------------2---2---2-2-2---5-5-5-5-5-5-5-5-5-5-5-5-5-5-5-5-|
G|-6---6---4-4-4---2---2---1-1-1---6-6-6-6-6-6-6-6-6-6-6-6-6-6-6-6-|
D|-0---0---0-0-0---x---x---x-x-x---6-6-6-6-7-7-7-7-7-7-7-7-7-7-7-7-|
A|-0---0---0-0-0---2---2---2-2-2---4-4-4-4-4-4-4-4-0-0-0-0-0-0-0-0-|
D|-0---0---0-0-0-------------------4-4-4-4-4-4-4-4-----------------|

e|-------------------------------------------------------------7-7-7-7-|
B|-3-3-3-3-5-5-5-5-7-7-7-7-9-9-9-9-7-7-7-7-9-9-9-9-10-10-10-10-x-x-x-x-|
G|-4-4-4-4-6-6-6-6-7-7-7-7-9-9-9-9-7-7-7-7-7-7-7-7-7--7--7--7--7-7-7-7-|
D|-x-x-x-x-x-x-x-x-x-x-x-x-x-x-x-x-0-0-0-0-0-0-0-0-0--0--0--0--0-0-0-0-|
A|-2-2-2-2-4-4-4-4-5-5-5-5-7-7-7-7-0-0-0-0-0-0-0-0-0--0--0--0--0-0-0-0-|
D|---------------------------------0-0-0-0-0-0-0-0-0--0--0--0--0-0-0-0-|


Bridge
e|-0-----0-0-----0-0-----0-0-------------------------------------|
B|-0-----0-0-----0-0-----0-0-----5-5-----5-5---------------------|
G|-x-----x-x-----x-x-----x-x-----6-6-----6-6-----6-6-----4-4-----|
D|-6-----7-7-----6-6-----7-7-----7-7-----6-6-----0-0-----0-0-----| x2
A|-2-----2-2-----2-2-----2-2-----4-4-----4-4-----0-0-----0-0-----|
D|-2-----2-2-----2-2-----2-2-----4-4-----4-4-----0-0-----0-0-----|

e|-0-0-0---0-0-0---0-0-0---0-0-0-----------------------------------|
B|-0-0-0---0-0-0---0-0-0---0-0-0---5-5-5---5-5-5-------------------|
G|-x-x-x---x-x-x---x-x-x---x-x-x---6-6-6---6-6-6---6-6-6---4-4-4---|
D|-6-6-6---7-7-7---6-6-6---7-7-7---7-7-7---6-6-6---0-0-0---0-0-0---|
A|-2-2-2---2-2-2---2-2-2---2-2-2---4-4-4---4-4-4---0-0-0---0-0-0---|
D|-2-2-2---2-2-2---2-2-2---2-2-2---4-4-4---4-4-4---0-0-0---0-0-0---|

e|-------------------------------------------------------------7-7-7-7-|
B|-3-3-3-3-5-5-5-5-7-7-7-7-9-9-9-9-7-7-7-7-9-9-9-9-10-10-10-10-x-x-x-x-|
G|-4-4-4-4-6-6-6-6-7-7-7-7-9-9-9-9-7-7-7-7-7-7-7-7-7--7--7--7--7-7-7-7-|
D|-x-x-x-x-x-x-x-x-x-x-x-x-x-x-x-x-0-0-0-0-0-0-0-0-0--0--0--0--0-0-0-0-|
A|-2-2-2-2-4-4-4-4-5-5-5-5-7-7-7-7-0-0-0-0-0-0-0-0-0--0--0--0--0-0-0-0-|
D|---------------------------------0-0-0-0-0-0-0-0-0--0--0--0--0-0-0-0-|

e|-0------------------------0--------------------------|
B|-7------------------------0--------------------------|
G|-6----------------6-4-----x--------------------6-4---|
D|-0----------4-6-7-----7---6--------------4-6-7-----7-|
A|-0------------------------4--------------------------|
D|-0------------------------4--------------------------|

With delay:
e|-----------------------------------------------------------------|
B|-----------------------------------------------------------------|
G|---------------------------6-4-----------------------------6-4---|
D|-6-------7-6---------4-6-7-----7-6-------7-6---------4-6-7-----7-| x2
A|-------------7-------------------------------7-------------------|
D|---0-0-0-------0-0-0---------------4-4-4-------4-4-4-------------|
     . . . . .   . . .               . . .  . .  . . .


Chorus
e|-------------------------0-0-0-----------------------------------|
B|-----------------2---2---2-2-2---5-5-5-5-5-5-5-5-5-5-5-5-5-5-5-5-|
G|-6---6---4-4-4---2---2---1-1-1---6-6-6-6-6-6-6-6-6-6-6-6-x-6-4-x-|
D|-0---0---0-0-0---x---x---x-x-x---6-6-6-6-7-7-7-7-6-6-6-6-4-4-4-7-| x2
A|-0---0---0-0-0---2---2---2-2-2---4-4-4-4-4-4-4-4-4-4-4-4-4-4-4-4-|
D|-0---0---0-0-0-------------------4-4-4-4-4-4-4-4-4-4-4-4-4-4-4-4-|

e|-------------------------0-0-0-----------------------------------|
B|-----------------2---2---2-2-2---5-5-5-5-5-5-5-5-5-5-5-5-5-5-5-5-|
G|-6---6---4-4-4---2---2---1-1-1---6-6-6-6-6-6-6-6-6-6-6-6-6-6-6-6-|
D|-0---0---0-0-0---x---x---x-x-x---6-6-6-6-7-7-7-7-7-7-7-7-7-7-7-7-|
A|-0---0---0-0-0---2---2---2-2-2---4-4-4-4-4-4-4-4-0-0-0-0-0-0-0-0-|
D|-0---0---0-0-0-------------------4-4-4-4-4-4-4-4-----------------|

e|-------------------------------------------------------------7-7-7-7-|
B|-3-3-3-3-5-5-5-5-7-7-7-7-9-9-9-9-7-7-7-7-9-9-9-9-10-10-10-10-x-x-x-x-|
G|-4-4-4-4-6-6-6-6-7-7-7-7-9-9-9-9-7-7-7-7-7-7-7-7-7--7--7--7--7-7-7-7-|
D|-x-x-x-x-x-x-x-x-x-x-x-x-x-x-x-x-0-0-0-0-0-0-0-0-0--0--0--0--0-0-0-0-|
A|-2-2-2-2-4-4-4-4-5-5-5-5-7-7-7-7-0-0-0-0-0-0-0-0-0--0--0--0--0-0-0-0-|
D|---------------------------------0-0-0-0-0-0-0-0-0--0--0--0--0-0-0-0-|

e|-------------------------0-0-0-----------------------------------|
B|-----------------2---2---2-2-2---5-5-5-5-5-5-5-5-5-5-5-5-5-5-5-5-|
G|-6---6---4-4-4---2---2---1-1-1---6-6-6-6-6-6-6-6-6-6-6-6-6-6-6-6-|
D|-0---0---0-0-0---x---x---x-x-x---6-6-6-6-7-7-7-7-7-7-7-7-7-7-7-7-| x2
A|-0---0---0-0-0---2---2---2-2-2---4-4-4-4-4-4-4-4-0-0-0-0-0-0-0-0-|
D|-0---0---0-0-0-------------------4-4-4-4-4-4-4-4-----------------|

e|-------------------------------------------------------------7-7-7-7-|
B|-3-3-3-3-5-5-5-5-7-7-7-7-9-9-9-9-7-7-7-7-9-9-9-9-10-10-10-10-x-x-x-x-|
G|-4-4-4-4-6-6-6-6-7-7-7-7-9-9-9-9-7-7-7-7-7-7-7-7-7--7--7--7--7-7-7-7-|
D|-x-x-x-x-x-x-x-x-x-x-x-x-x-x-x-x-0-0-0-0-0-0-0-0-0--0--0--0--0-0-0-0-|
A|-2-2-2-2-4-4-4-4-5-5-5-5-7-7-7-7-0-0-0-0-0-0-0-0-0--0--0--0--0-0-0-0-|
D|---------------------------------0-0-0-0-0-0-0-0-0--0--0--0--0-0-0-0-|

e|-9--------------------|
B|-x--------------------|
G|-7--------------------|
D|-0--------------------|
A|-0--------------------|
D|-0--------------------|



© Copyright, foresthump
Suggest correction
Give kudos to tab author, rate the tab!
1 2 3 4 5
comments
print report bad tab
1 comment total.
0 reply
unknown-user 40 Jul 23, 2009 01:56 AM

Go on billytalent.com to check for the intro , it's on it..

guest
You may want to rate the tab now too:
select rating
Wanna post a correction for this tab? Suggest correction