Oops, an error
Loading. Please wait.

Diamond On A Landmine Tab

version 3
version 3

Whole song

Interactive

933 views 6 this week
no commentswrite comment
1 2 3 4 5
please rate
add to favorites
launch autoscroll
font size
0
reset
how to read this tab
guitar tuner
Autoscroll
slow
fast
+/-
esc
set tempo
stop
Help us to improve Ultimate-Guitar.com Take our survey!
×
Author
Difficulty
Tuning
intermediate
D A D G B E
Diamond on a Landmine - Billy Talent

Vocal (Guitar Version) Tab

() = Harmonies

-This is the vocal rythm played on guitar.

---------------------------------------------|
              ---INTRO-----------------------|
0:14

e|(9-----7--4----7--5)--------------------|
B|-10----9--5----9--7---------------------|
G|----------------------------------------|
D|----------------------------------------|
A|----------------------------------------|
E|----------------------------------------|

---------------------------------------------|
           ---FIRST VERSE--------------------|
0:32

e|----------------------------------------|
B|----------------------------------------|
G|-6-6-4----------------------------------|
D|---------7-9-6---6-6-6-7-6---6-6-4------|
A|---------------------------7------------|
E|----------------------------------------|

e|----------------------------------------|
B|-----5----------------------------------|
G|-4-6---4-------4------------------------|
D|-----------7-7---6---6-6-6-7-6---6-6-4--|
A|-------------------------------7--------|
E|----------------------------------------|

e|-------------5-4-----4-4-5-4---4-4------|
B|---5-7---5-7-------7---------5-----7----|
G|-6--------------------------------------|
D|----------------------------------------|
A|----------------------------------------|
E|----------------------------------------|

e|---------------5-4-----4-4-5-4---4-4----|
B|-----5-7---5-7-------7---------5-----7--|
G|-4-6------------------------------------|
D|----------------------------------------|
A|----------------------------------------|
E|----------------------------------------|

---------------------------------------------|
           ---PRE-CHORUS---------------------|
0:57

e|----------------------------------------|
B|(5-5---5-5)-----------------------------|
G|----------------------6-4---------------|
D|-7-6---4-7------4-6-7-------------------|
A|----------------------------------------|
E|----------------------------------------|

e|----------------------------------------|
B|(5-5---5-5)-----------------------------|
G|----------------------6-4---------------|
D|-7-6---4-7------4-6-7-------------------|
A|----------------------------------------|
E|----------------------------------------|

e|---------------------------------(4)----|
B|(5---5-5---5--5-5)-------(5-5-7-7)------|
G|-----------4----6---6-7-7-6-6-4-4-------|
D|-6---4-7------7------(9-9)--------7-----|
A|----------------------------------------|
E|----------------------------------------|

---------------------------------------------|
             ---CHORUS-----------------------|
1:10

e|---------------------------5------------|
B|-5-7-7---5-7-7---5-7---5-7--------------|
G|---------------------6------------------|
D|----------------------------------------|
A|----------------------------------------|
E|----------------------------------------|

e|-------------------4-5-7-4-5------------|
B|-7-5-7-7---5-7-7-------------7----------|
G|----------------------------------------|
D|----------------------------------------|
A|----------------------------------------|
E|----------------------------------------|

e|-----------------------------5----------|
B|-7-5-7-7---5-7-7---5-7---5-7------------|
G|-----------------------6----------------|
D|----------------------------------------|
A|----------------------------------------|
E|----------------------------------------|

e|-------------------4-5-7-4-5------------|
B|-7-5-7-7-7-5-7---7-----------7-7--------|
G|----------------------------------------|
D|----------------------------------------|
A|----------------------------------------|
E|----------------------------------------|

---------------------------------------------|
           ---SECOND VERSE-------------------|
1:30

e|----------------------------------------|
B|----------------------------------------|
G|-6-6-4----------------------------------|
D|---------7-9-6---6-6-6-7-6---6-6-4------|
A|---------------------------7------------|
E|----------------------------------------|

e|----------------------------------------|
B|-----5----------------------------------|
G|-4-6---4-------4------------------------|
D|-----------7-7---6---6-6-6-7-6---6-6-4--|
A|-------------------------------7--------|
E|----------------------------------------|

e|-------------5-4-----4-4-5-4---4-4------|
B|---5-7---5-7-------7---------5-----7----|
G|-6--------------------------------------|
D|----------------------------------------|
A|----------------------------------------|
E|----------------------------------------|

e|---------------5-4-----4-4-5-4---4-4----|
B|-----5-7---5-7-------7---------5-----7--|
G|-4-6------------------------------------|
D|----------------------------------------|
A|----------------------------------------|
E|----------------------------------------|

---------------------------------------------|
           ---PRE-CHORUS---------------------|
1:56

e|----------------------------------------|
B|(5-5---5-5)-----------------------------|
G|----------------------6-4---------------|
D|-7-6---4-7------4-6-7-------------------|
A|----------------------------------------|
E|----------------------------------------|

e|----------------------------------------|
B|(5-5---5-5)-----------------------------|
G|----------------------6-4---------------|
D|-7-6---4-7------4-6-7-------------------|
A|----------------------------------------|
E|----------------------------------------|

e|---------------------------------(4)----|
B|(5---5-5---5--5-5)-------(5-5-7-7)------|
G|-----------4----6---6-7-7-6-6-4-4-------|
D|-6---4-7------7------(9-9)--------7-----|
A|----------------------------------------|
E|----------------------------------------|

---------------------------------------------|
             ---CHORUS-----------------------|
2:08

e|---------------------------5------------|
B|-5-7-7---5-7-7---5-7---5-7--------------|
G|---------------------6------------------|
D|----------------------------------------|
A|----------------------------------------|
E|----------------------------------------|

e|-------------------4-5-7-4-5------------|
B|-7-5-7-7---5-7-7-------------7----------|
G|----------------------------------------|
D|----------------------------------------|
A|----------------------------------------|
E|----------------------------------------|

e|-----------------------------5----------|
B|-7-5-7-7---5-7-7---5-7---5-7------------|
G|-----------------------6----------------|
D|----------------------------------------|
A|----------------------------------------|
E|----------------------------------------|

e|-------------------4-5-7-4-5------------|
B|(7-5-7-7-7-5-7)--7-----------7-7--------|
G|----------------------------------------|
D|----------------------------------------|
A|----------------------------------------|
E|----------------------------------------|

e|---------------4-5-7-4-5----------------|
B|(7-7-7-5-7)--7-----------7-7------------|
G|----------------------------------------|
D|----------------------------------------|
A|----------------------------------------|
E|----------------------------------------|

e|---------------4-5-7-4-5----------------|
B|(7-7-7-5-7)--7-----------7-7------------|
G|----------------------------------------|
D|----------------------------------------|
A|----------------------------------------|
E|----------------------------------------|

e|-------4--------------------------------|
B|---5-7---7------------------------------|
G|-7(6---6-7)-----------------------------|
D|(9---7)---------------------------------|
A|----------------------------------------|
E|----------------------------------------|

---------------------------------------------|
              ---BRIDGE----------------------|
2:35

e|-4-4-4---4-5---4------------------------|
B|(5-5-5)7(5-5)----7----------------------|
G|----------------(7)---------------------|
D|----------------------------------------|
A|----------------------------------------|
E|----------------------------------------|

e|-4-4---4-5---4--------------------------|
B|(5-5)7(5-5)----7------------------------|
G|--------------(7)-----------------------|
D|----------------------------------------|
A|----------------------------------------|
E|----------------------------------------|

e|-4-4-4---4-5---4------------------------|
B|(5-5-5)7(5-5)----7----------------------|
G|----------------(7)---------------------|
D|----------------------------------------|
A|----------------------------------------|
E|----------------------------------------|

e|---------4------------------------------|
B|-5---5-7---7----------------------------|
G|---7(6---6-7)---------------------------|
D|--(9---7)-------------------------------|
A|----------------------------------------|
E|----------------------------------------|

---------------------------------------------|
           ---GUITAR SOLO--------------------|
3:00

---------------------------------------------|
           ---PRE-CHORUS---------------------|
3:24

e|----------------------------------------|
B|(5-5---5-5)-----------------------------|
G|----------------------6-4---------------|
D|-7-6---4-7------4-6-7-------------------|
A|----------------------------------------|
E|----------------------------------------|

e|----------------------------------------|
B|(5-5---5-5)-----------------------------|
G|----------------------6-4---------------|
D|-7-6---4-7------4-6-7-------------------|
A|----------------------------------------|
E|----------------------------------------|

e|---------------------------------(4)----|
B|(5---5-5---5--5-5)-------(5-5-7-7)------|
G|-----------4----6---6-7-7-6-6-4-4-------|
D|-6---4-7------7------(9-9)--------7-----|
A|----------------------------------------|
E|----------------------------------------|

---------------------------------------------|
             ---CHORUS-----------------------|
3:37

e|---------------------------5------------|
B|-5-7-7---5-7-7---5-7---5-7--------------|
G|---------------------6------------------|
D|----------------------------------------|
A|----------------------------------------|
E|----------------------------------------|

e|-------------------4-5-7-4-5------------|
B|-7-5-7-7---5-7-7-------------7----------|
G|----------------------------------------|
D|----------------------------------------|
A|----------------------------------------|
E|----------------------------------------|

e|-----------------------------5----------|
B|-7-5-7-7---5-7-7---5-7---5-7------------|
G|-----------------------6----------------|
D|----------------------------------------|
A|----------------------------------------|
E|----------------------------------------|

e|-------------------4-5-7-4-5------------|
B|(7-5-7-7-7-5-7)--7-----------7-7--------|
G|----------------------------------------|
D|----------------------------------------|
A|----------------------------------------|
E|----------------------------------------|

e|---------------4-5-7-4-5----------------|
B|(7-7-7-5-7)--7-----------7-7------------|
G|----------------------------------------|
D|----------------------------------------|
A|----------------------------------------|
E|----------------------------------------|

e|---------------4-5-7-4-5----------------|
B|(7-7-7-5-7)--7-----------7-7------------|
G|----------------------------------------|
D|----------------------------------------|
A|----------------------------------------|
E|----------------------------------------|

e|-------4--------------------------------|
B|---5-7---7------------------------------|
G|-7(6---6-7)-----------------------------|
D|(9---7)---------------------------------|
A|----------------------------------------|
E|----------------------------------------|

4:03

e|---------------4-5-7-4-5----------------|
B|(7-7-7-5-7)--7-----------7-7------------|
G|----------------------------------------|
D|----------------------------------------|
A|----------------------------------------|
E|----------------------------------------|

e|---------------4-5-7-4-5----------------|
B|(7-7-7-5-7)--7-----------7-7------------|
G|----------------------------------------|
D|----------------------------------------|
A|----------------------------------------|
E|----------------------------------------|

e|-------------5-7-4-5--------------------|
B|(7-7-7-7-7)----------7-7----------------|
G|----------------------------------------|
D|----------------------------------------|
A|----------------------------------------|
E|----------------------------------------|

e|-------------5-7-4-5--------------------|
B|(7-7-7-5-7)----------7-7----------------|
G|----------------------------------------|
D|----------------------------------------|
A|----------------------------------------|
E|----------------------------------------|

e|-------4--------------------------------|
B|---5-7---7------------------------------|
G|-7(6---6-7)-----------------------------|
D|(9---7)---------------------------------|
A|----------------------------------------|
E|----------------------------------------|
Suggest correction
Give kudos to tab author, rate the tab!
1 2 3 4 5
comments
print report bad tab
guest
You may want to rate the tab now too:
select rating
Please do not post tabs as comments. Select "correction" instead!