Oops, an error
Loading. Please wait.

Dont Need To Pretend Bass Tab

version 1
version 1

Whole song

Interactive

1,164 views 1 this week
no commentswrite comment
1 2 3 4 5
please rate
add to favorites
launch autoscroll
font size
0
reset
guitar tuner
Autoscroll
slow
fast
+/-
esc
set tempo
stop
Help us to improve Ultimate-Guitar.com Take our survey!
×
Author
Difficulty
Tuning
temp144 1,110
intermediate
D A D G B E
tabbed by tony d

Intro:1x
G-----------------------------------------------------------------|
D-----------------------------------------------------------------|
A-2-2-2-2-2-2-4-5-0-0-0-0-0-0-2-4---------------------------------|
D---------------------------------5-5-5-5-5-5-5-4-2-2-2-2-2-2-2-0-|

Verse:2x
G-----------------------------------------------------------------|
D-----------------------------------------------------------------|
A-2-2-2-2-2-2-2-2-0-0-0-0-0-0-0-0---------------------------------|
D---------------------------------5-5-5-5-5-5-5-4-2-2-2-2-2-2-2-0-|

Play Intro 2x

Pre-Chorus:1x
G-----------------------------------------------------------|
D-----------------------------------------------------------|
A-0(ring)-0(ring)-----------------0(ring)-0(ring)-----------|
D-----------------0(ring)-0(ring)------------------2-2-22-4-|

Chorus:1x
G-----------------------------------------------------------|
D-----------------------------------------------------------|
A-------------55-22-222-22-4-5-------------55-22-222-22-2-0-|
D-55-555-55-5------------------55-555-55-5------------------|

G-----------------------------------------|
D-----------------------------------------|
A-------------0(ring)-00----------------0-|
D-0(ring)-00--------------2-2-2-2-2-2-2---|

Intro:1x
Verse:1x
Intro:2x
Pre-Chorus:1x

2nd Chorus:x
G-----------------------------------------------------------|
D-----------------------------------------------------------|
A-------------11-22-222-22-4-5-------------11-22-222-22-2-0-|
D-55-555-55-5------------------55-555-55-5------------------|

G-----------------------------------------|
D-----------------------------------------| Play 2x on Last 2nd Chorus
A-------------0(ring)-00----------------0-|
D-0(ring)-00--------------2-2-2-2-2-2-2---|
                                   
G----------------------------------|
D--0-4-2-0-------------------------|
A----------0-4-2-0---------------0-|
D------------------5-5-5-4-2-2-2---|

Bridge:Play Intro 2x
Pre-Chorus:1x
Chorus:1x
2nd Chorus:1x

Outro:1x
G---------|
D---------|
A-2(ring)-|
D---------|
Suggest correction new What's this?
You can suggest a correction to this tab. Community and Mods will review your correction and vote to approve or reject it.
comments
We did not receive enough feedback on this tab! Please rate:
print report bad tab
1 2 3 4 5
guest
You may want to rate the tab now too:
select rating
Please do not post tabs as comments. Select "correction" instead!