Oops, an error
Loading. Please wait.

Dont Need To Pretend Tab

version 2
version 2

Whole song

Interactive

4,236 views 6 this week
no commentswrite comment
1 2 3 4 5
please rate
add to favorites
launch autoscroll
font size
0
reset
how to read this tab
guitar tuner
Tab Pro tools
  • play this tab
  • loop segment
  • change instrument
  • show fretboard
  • metronome
×
Best way to learn
"Dont Need To Pretend"
Autoscroll
slow
fast
+/-
esc
set tempo
stop
Contributor
Difficulty
Tuning
novice
D A D G B E
                              BILLY TALENT
                          DON'T NEED TO PRETEND
                             BILLY TALENT III

Here's my tab for Billy Talent's Bonus Track "Don't Need To Pretend".
I got it all by ear except for the guitar solo, which is from the other tab here.
Have fun!



INTRO:

-----------------|-----------------|-----------------|-----------------|
-3-3-3-3-3-3-5-7-|-2-2-2-2-2-5-3-2-|-----------------|-----------------|
-4-4-4-4-4-4-4-4-|-2-2-2-2-2-2-2-2-|--------67-6-----|-----------------|
-4-4-4-4-4-4-4-4-|-2-2-2-2-2-2-2-2-|-9-9-9-9-5-5-9-7-|-2-2-2-245-4-2-2-|
-2-2-2-2-2-2-2-2-|-0-0-0-0-0-0-0-0-|-5-5-5-5-5-5-5-5-|-2-2-2-2-2-2-2-5-|
-----------------|-----------------|-5-5-5-5-5-5-5-5-|-2-2-2-2-2-2-2-2-|

VERSE:

-------|------|--------0------|--------0--------|
---3---|--2---|----------3--3-|----------3--3---|
---4---|--2---|------0--------|------0----------|
---4---|--2---|----4----------|----4------------| x2
---2---|--0---|---------------|-----------------|
-------|------|---------------|-----------------|

-----------------|-----------------|-----------------|-----------------|
-3-3-3-3-3-3-5-7-|-2-2-2-2-2-5-3-2-|-----------------|-----------------|
-4-4-4-4-4-4-4-4-|-2-2-2-2-2-2-2-2-|--------67-6-----|-----------------|
-4-4-4-4-4-4-4-4-|-2-2-2-2-2-2-2-2-|-9-9-9-9-5-5-9-7-|-2-2-2-245-4-2-2-|
-2-2-2-2-2-2-2-2-|-0-0-0-0-0-0-0-0-|-5-5-5-5-5-5-5-5-|-2-2-2-2-2-2-2-5-|
-----------------|-----------------|-5-5-5-5-5-5-5-5-|-2-2-2-2-2-2-2-2-|

-----------------|-----------------|-----------------|-----------------|
-3-3-3-3-3-3-5-7-|-2-2-2-2-2-5-3-2-|-----------------|-----------------|
-4-4-4-4-4-4-4-4-|-2-2-2-2-2-2-2-2-|--------67-6-----|-----------------|
-4-4-4-4-4-4-4-4-|-2-2-2-2-2-2-2-2-|-9-9-9-9-5-5-9-7-|-2-2-2-245-4-----|
-2-2-2-2-2-2-2-2-|-0-0-0-0-0-0-0-0-|-5-5-5-5-5-5-5-5-|-2-2-2-2-2-2-----|
-----------------|-----------------|-5-5-5-5-5-5-5-5-|-2-2-2-2-2-2--b5-|
                                                            Bend the note


PRE-CHORUS

--------|---2--2-----|-----------|----------------------------------|
-2--2---|---3--3-----|-----2--2--|----------------------------------|
-2--2---|---2--2-----|-----2--2--|----------------------------------|
-2--2---|---0--0-----|-----2--2--|----2--2----------4---------------|
-0--0---|---0--0-----|-----0--0--|----2--2----------4---------------|
--------|---0--0-----|-----------|----2--2----------4---------------|

---------------------------------|---------------------------------|
---------------------------------|-3-3-3-3-3-3-3-3-3-3-3-3-5-5-7-7-|
-----7---7-6-7-9---7---6---7-----|-4-4-4-4-4-4-4-4-4-4-4-4-4-4-4-4-|
-5-5-5-5-5-5-5-5-5-5-5-5-5-5-5-5-|-4-4-4-4-4-4-4-4-4-4-4-4-4-4-4-4-|
-5-5-5-5-5-5-5-5-5-5-5-5-5-5-5-5-|-2-2-2-2-2-2-2-2-2-2-2-2-2-2-2-2-|
-5-5-5-5-5-5-5-5-5-5-5-5-5-5-5-5-|---------------------------------|


CHORUS:

-2--2--|----------|------------------------------------------|
-3--3--|----------|------------------------------------------|
-2--2--|--2-2-2---|------------------------------------------|
-------|--2-2-2---|--2--2---------5--------------------------|
-------|--0-0-0---|--2--2---------5--------------------------|
-------|----------|--2--2---------5--------------------------|

INTRO

VERSE

PRE-CHORUS

CHORUS x2



GUITAR SOLO:

---7-5---------------------------------------------------|
-7-----7-5-7-5------------------------------7-10-8-5-7-8-|
---------------7-6--6-7-9-7-6--------6-7-9---------------|
------------------------------7-9--9---------------------|
---------------------------------------------------------|
---------------------------------------------------------|

----7-9-7----10-10-12-10-9-7-9-12-10-9-7-5-3-2-0---------|
-10------7-7-------------------------------------3-2-0---|
----------7----------------------------------------------|
---------------------------------------------------------|
---------------------------------------------------------|
---------------------------------------------------------|


comments
We did not receive enough feedback on this tab! Please rate:
print report bad tab
1 2 3 4 5
I want to post or [tab]
guest
You may want to rate the tab now too:
select rating
Please do not post tabs as comments. Select "correction" instead!