Oops, an error
Loading. Please wait.

Fallen Leaves Bass Tab

version 1
version 1
60,094 views 102 this week
12 commentsread comments
1 2 3 4 5
x 19
add to favorites
launch autoscroll
font size
0
reset
guitar tuner
Autoscroll
slow
fast
+/-
esc
set tempo
stop
Help us to improve Ultimate-Guitar.com Take our survey!
×
Author
Difficulty
Tuning
novice
D A D G B E
Album: Billy Talent II
Tabbed by Tony D (Temp144)
Tuning: Drop D

Another song from Billy Talent II. Nice mid-tempo beat. 
Pretty good. Now that the proper version is out, I've corrected 
my errors, so Enjoy! Long Live Taborama.com!


[Intro:]1x                                                   
G|-----------------------------------------------|
D|-----------------------------------------------|
A|-3-3-1-----------------------------------------|
D|-------5-5-5-5-6-5-3-1--11-6-6h5-3-3h2-1-1-3-5-|


[Verse:]2x                    Play After 2x
G|--------------------------|-----------------------------------------------------|
D|--------------------------|-----------------------------------------------------|
A|-3(ring)-----6(ring)------|-3-3-3-3-------1111----------------------------------|
D|--------5-5-1-------5-5-1-|--------6-6-6-6----1111--6-6-6-5-3-3-3-2-111-3-5-5-5-|


[Pre-Chorus:]1x
G|----------------------------------------------------|
D|----------------------------------------------------|
A|-3-3-3-3---------1111----------------------22222222-|
D|---------6-6-6-6------1111--6-6-6-6-6-6-6-6---------|

[Chorus:]2x
G|-----------------------------------------------|
D|-----------------------------------------------|
A|-3-3-1-----------------------------------------|
D|-------5-5-5-5-5-5-0-1-11-6-6h5-3-3h0-1-1-3-5--|

Post Chorus: Play Verse 2x
Verse:2x
Chorus:2x


[Bridge:]2x                         Play After 1x  Play After 2x
G|--------------------------------------------------|--------------|----------------|
D|--------------------------------------------------|--------------|----------------|
A|-3-3-3-3------------------------------------------|-3-3-3-3-1111-|-3---3-2-1---1--|
D|---------5-5-5-5-5-5-5-5-3-0-1111-3-3-3-3-6-6-6-6-|--------------|---5-------3----|


[Post Bridge:]1x
G|------------------------------------------------------------------------------------------|
D|------------------------------------------------------------------------------------------|
A|----------3--6-6------------3--6-6----------------3-3-3-3-6-6-6-6-------------------------|
D|-3--5-5------------3--5-5----------3-3-3-3-5-5-5-5---------------5-5-5-5-5-5-5-5-22222222-|

Chorus:4x


[Ending:]1x
G|------------|
D|------------|
A|-3(ring)----|
D|------------|



************************************

| h  Hammer-on

************************************
Suggest correction
comments
print report bad tab
12 comments total. Showing first comments.
0 reply
A_GOOD_TABBER 145 Jul 03, 2006 11:32 PM

At some points I can't follow what the hell you typed. But mostly good.

0 reply
temp144 1,191 Jul 04, 2006 03:32 AM

I know it looks complicated because that's how I interpret it in my brain but if you play the parts and follow along with the song, it a piece of cake, although, this is not one of my best tabs.

0 reply
punkextremest 47 Jul 17, 2006 12:52 PM

good tab except im not sure about the hammer ons and the chorus is just the same as the intro but other wise great tab m8t!!

guest
You may want to rate the tab now too:
select rating
Wanna post a correction for this tab? Suggest correction