Oops, an error
Loading. Please wait.

Fallen Leaves Tab

version 1
version 1
66,972 views 18 this week
3 commentsread comments
1 2 3 4 5
accurate
x 12
add to favorites
launch autoscroll
font size
0
reset
how to read this tab
guitar tuner
Autoscroll
slow
fast
+/-
esc
set tempo
stop
Help us to improve Ultimate-Guitar.com Take our survey!
×
Contributor
Difficulty
Tuning
Corle 47
intermediate
D A D G B E
Tabbed by Corle(Cole.D.Moore@hotmail.com)
THIS IS JUST THE INTRO/CHORUS, and nothing more than that, but this has to be pretty
accurate, i used the slow-downer and tried to get evrey note perfect. ENJOY!
===============================================================================
INTRO
e|-----------------------------------------------------------------|  x2
B|-4-4-4-4-3-3-3-3-3-6-4-4-4-4-4-4-4-4-4-1-1-1-1-1-1-1---0-0-0-0---|
G|-5-0-5-0-4-0-4-0-4-0-0-3-0-3-0-1-0-1-1-x-x-x-x-x-x-x---0-0-0-0---|
D|---------------------------------------3-3-3-3-1-1-1/3-0-0-0-0---|
A|-----------------------------------------------------------------|
D|-----------------------------------------------------------------|

CHORUS(comes right after the intro at the first)
e---------------------------------------------|
B---------------------------------------------|
G-5--5-3--------------------------------------|
D-5--5-3-5--5-5-6-5-3-1-6--6-6-3--3-1-1-1-3-5-|
A-3--3-1-5--5-5-6-5-3-1-6--6-6-3--3-1-1-1-3-5-|
D--------5--5-5-6-5-3-1-6--6-5-3--3-1-1-1-3-5-|


Listen to the song for timing but i think thats it, EMAIL ME CORRECTIONS PLEASE. but im
sure its good. PEACE OUT(rest of the song COMMING SOON)
comments
print report bad tab
3 comments total.
0 reply
shoebox_of_lies 4,570 wrote on June 30 2006, 05:42 pm

hey its perfect, i just think you forgot to type a note:

from this:
e|-----------------------------------------------------------------|
B|-4-4-4-4-3-3-3-3-3-6-4-4-4-4-4-4-4-4-4-1-1-1-1-1-1-1---0-0-0-0---|
G|-5-0-5-0-4-0-4-0-4-0-0-3-0-3-0-1-0-1-1-x-x-x-x-x-x-x---0-0-0-0---|
D|---------------------------------------3-3-3-3-1-1-1/3-0-0-0-0---|
A|-----------------------------------------------------------------|

to this:
e|-----------------------------------------------------------------|
B|-4-4-4-4-3-3-3-3-3-3-6-4-4-4-4-4-4-4-4-4-1-1-1-1-1-1-1---0-0-0-0-|
G|-5-0-5-0-4-0-4-0-4-0-0-0-3-0-3-0-1-0-1-1-x-x-x-x-x-x-x---0-0-0-0-|
D|-----------------------------------------3-3-3-3-1-1-1/3-0-0-0-0-|
A|-----------------------------------------------------------------|
D|-----------------------------------------------------------------|

i dont know if itll look right in the post but if u past it into word pad in courier new u should see

0 reply
pic man 109 wrote on June 3 2007, 03:54 pm

There were a lot of mistakes with the chorus thing (I forgot to include that in the e-mail I sent you). The Intro was just about right though. (maybe I'm just wrong)

0 reply
DetoxGirl753 11 wrote on June 19 2009, 02:03 pm

You kinda messed up the chorus and you missed a note on the intro. you should check it out

I want to post or [tab]
guest
You may want to rate the tab now too:
select rating
Please do not post tabs as comments. Select "correction" instead!