Oops, an error
Loading. Please wait.

Fallen Leaves Tab

version 2
version 2
8,693 views 9 this week
2 commentsread comments
1 2 3 4 5
x 7
add to favorites
launch autoscroll
font size
0
reset
how to read this tab
guitar tuner
Autoscroll
slow
fast
+/-
esc
set tempo
stop
Help us to improve Ultimate-Guitar.com Take our survey!
×
Author
Tuning
D A D G B E
|---------------------------------|
|-4-4-4-4-3-3-3-3-3-3-6-4-4-4-4-4-|
|-5-0-5-0-4-0-4-0-4-0-7-0-5-0-5-0-|
|---------------------------------|
|---------------------------------|
|---------------------------------|

|---------------------------------|
|-1-1-1-1-------------------------|
|-1-0-1-0-1-1-1-1-----------------|
|---------3-3-3-3-5-5-5/6/3-------|
|-----------------6-6-6-8/5-------|
|---------------------------------|
Suggest correction
comments
print report bad tab
2 comments total.
0 reply
BJ is ma HB 10 May 01, 2007 07:28 PM

Hilo!

+1 reply
beavisandbutthe 10 Jul 06, 2009 04:27 PM

it's 50% wrong

guest
You may want to rate the tab now too:
select rating
Wanna post a correction for this tab? Suggest correction