Oops, an error
Loading. Please wait.

Fallen Leaves Tab

version 2
34,814 views 42 this week
9 commentsread comments
1 2 3 4 5
x 23
add to favorites
launch autoscroll
font size
0
reset
how to read this tab
guitar tuner
Autoscroll
slow
fast
+/-
esc
set tempo
stop
Help us to improve Ultimate-Guitar.com Take our survey!
×
Author
Difficulty
-------------------------------------------------------------------------------
		 Fallen Leaves (solo/interlude) - Billy Talent
-------------------------------------------------------------------------------
Tabbed by: john
Email: jondc90@hotmail.com

  -This is really easy to play, if u have'nt bought their new album,
                                                       <<>>

Tuning: drop D
(timing not show)
e|---------------------------------------------------------------------------|
B|------------------8--------------------8------------8-9-----------8-9------|
G|---5-7-8--5-7---------7-8-10--7-8-----------10------------10---------------|
D|---------------8--------------------8------------10-----------10-----------|
A|---------------------------------------------------------------------------|
D|---------------------------------------------------------------------------|

e|---------------------------------------------------------------------------|
B|---------8----------------------------------------8-------------------8----|
G|-10---------8--10---15--17--19\----5-7-8--5-7---------7-8-10--7-8----------|
D|-----10----------------------------------------8-------------------8-------|
A|---------------------------------------------------------------------------|
D|---------------------------------------------------------------------------|

e|---------------------------------------------------------------------------|
B|----------8-9----------8-9----------8--------------------------------------|
G|--10-----------10-----------10---------8---10~--15\------------------------|
D|------10-----------10-----------10-----------------------------------------|
A|---------------------------------------------------------------------------|
D|---------------------------------------------------------------------------|
	^this is the end of the main solo part, but some of it countinues with
         the rythem

 |rythem    (this is repeated several times with some variation)             |
e|---------------------------------------------------------------------------|
B|---------------------------------------------------------------------------|
G|--10--------5--8-8-7-8-----------------------------------------------------|
D|--10--5-5---5--8-8-7-8-----------------------------------------------------|
A|--8---5-5---3--6-6-5-6-----------------------------------------------------|
D|------5-5------------------------------------------------------------------|
 |                                                                           |
 |lead	  (this is repeated aswell, listen to the song to figure it out)    |
e|---------------------------3-----------------------------------------------|
B|----------------5-4--------------------------------------------------------|
G|--3-5-6----------------5---------------------------------------------------|
D|---------------------------------------------------------------------------|
A|---------------------------------------------------------------------------|
D|---------------------------------------------------------------------------|


| /  slide up
| \  slide down
| h  hammer-on
| p  pull-off
| ~  vibrato
| +  harmonic
| x  Mute note
===============================================================================
Suggest correction
comments
print report bad tab
9 comments total. Showing first comments.
0 reply
grnday 220 Jul 08, 2006 02:47 PM

sounds good, although im pretty sure that the first part has hammerons but good tab, 4 stars.

0 reply
fire_red_guitar 36 Jul 10, 2006 06:36 PM

yeah, good call grnday. the hamerons work better for that part... thanks for the correction.

-1 reply
fender_girl91 10 Apr 23, 2007 01:43 PM

what does drop d tuning mean???????

guest
You may want to rate the tab now too:
select rating
Wanna post a correction for this tab? Suggest correction