Oops, an error
Loading. Please wait.
We have an official Fallen Leaves tab made by UG professional guitarists. Check out the tab »
×
510,862 views 459 this week
73 commentsread comments
1 2 3 4 5
x 167
add to favorites
×
Save as Personal and add changes to this tab that will be seen only by you. Learn more ›
×
You can save this tab as Personal to edit and correct it or add notes. All changes will be seen only by you. Learn more »
launch autoscroll
font size
0
reset
how to read this tab
guitar tuner
backing track
0:00
0:00
edit
Autoscroll
slow
fast
+/-
esc
set tempo
stop
~~~~~~~~~~~~~~~~~~~~~~~~~BILLY TALENT - FALLEN LEAVES~~~~~~~~~~~~~~~~~~~~~~~

Here's Fallen Leaves. Find any corrections? Email me.

Name: Brendan
Email: x-parasite@e-dimensionz.com

Updated: July 29th 2006-Change in riff, and verse thanks to george92

Updated: July 30th 2006-Intro corrected thanks to monachima505

Updated: December 19th 2006-OK! After several months of getting emails sent to me
I have decided to finally edit the Intro. There was 1 chord in it that I forgot to add, and
caused several emails, lol. I can't really thank any peticular person, but thanks to all
pointing it out.

Also some people offered changes in the solo...I appreciate it but I think the
is completely fine, thanks anyways! Thanks to all and email me whenever!

FINAL UPDATE: January 7th, 2007 - Intro changed, seems I forgot to add a chord in with 
to Kyle Swidrovich for pointing this out.

I have taken a break from tabbing songs...but now I have decided to move on to tabbing 
Dragonforce! Everyone, I've helped you now you help me! Spread the word of the band 
the 2nd best band ever -- next to Billy Talent!


[Intro Part 1]

Light Distortion
e|------------------------------------------------------------------------|
B|-4-4-4-4-3-3-3-3-3-3-6-4-4-4-4-4-1-1-1-1---------1-1-1/3-0-0-0-0--------|
G|-5-0-5-0-4-0-4-0-4-0-0-0-3-0-3-0-1-0-1-0-5-5-5-5-x-x-x---0-0-0-0--------|
D|-----------------------------------------3-3-3-3-1-1-1/3-0-0-0-0--------| x2
A|------------------------------------------------------------------------|
D|------------------------------------------------------------------------|


[Intro Part 2]

Heavy Distortion
e|------------------------------------------------------------------------|
B|------------------------------------------------------------------------|
G|-5--5-------------------------------------------------------------------|
D|-5--5-0-5--5--5--5-6-5-3-1--1-1-6--6-5-3--3-3--1-1-1-3--5-5-5-5-5-------|
A|-3--3-0-5--5--5--5-6-5-3-1--1-1-6--6-5-3--3-3--1-1-1-3--5-5-5-5-5-------|
D|------0-5--5--5--5-6-5-3-1--1-1-6--6-5-3--3-3--1-1-1-3--5-5-5-5-5-------|


[Verse Part 1]

Clean/Light Distortion
e|-3-----------------------3----------------------------------------------|
B|-4-----------7-----------4-----------8----------------------------------|
G|-5-----------8-----------5-----------8----------------------------------|
D|-5----5-5-1--8----5-5-1--5----5-5-1--8--5-5-1---------------------------|
A|-3----5-5-1--6----5-5-1--3----5-5-1--6--5-5-1---------------------------|
D|------5-5-1-------5-5-1-------5-5-1-----5-5-1---------------------------|


[Verse Part 2]

Light Distortion
e|------------------------------------------------------------------------|
B|------------------------------------------------------------------------|
G|--5-5-5-5---------------------------------------------------------------|
D|--5-5-5-5--6-6-6-6--8-8-8-8--1-1-1-1--6-6-6-5-3-3-3-2-1-1-1-3-5-5-5-5---|
A|--3-3-3-3--6-6-6-6--8-8-8-8--1-1-1-1--6-6-6-5-3-3-3-2-1-1-1-3-5-5-5-5---|
D|-----------6-6-6-6--8-8-8-8--1-1-1-1--6-6-6-5-3-3-3-2-1-1-1-3-5-5-5-5---|


[Pre-chorus]

Light Distortion
e|------------------------------------------------------------------------|
B|------------------------------------------------------------------------|
G|--5-5-5-5---------------------------------------------4-4-4-4-4-4-4-4---|
D|--5-5-5-5--6-6-6-6--8-8-8-8--1-1-1-1--6-6-6-6-6-6-6-6-4-4-4-4-4-4-4-4---|
A|--3-3-3-3--6-6-6-6--8-8-8-8--1-1-1-1--6-6-6-6-6-6-6-6-2-2-2-2-2-2-2-2---|
D|-----------6-6-6-6--8-8-8-8--1-1-1-1--6-6-6-6-6-6-6-6-------------------|


[Chorus]

Heavy Distortion
e|------------------------------------------------------------------------|
B|------------------------------------------------------------------------|
G|-5--5-------------------------------------------------------------------|
D|-5--5-0-5--5--5--5-6-5-3-1--1-1-6--6-5-3--3-3--1-1-1-3--5-5-5-5-5-------| x2
A|-3--3-0-5--5--5--5-6-5-3-1--1-1-6--6-5-3--3-3--1-1-1-3--5-5-5-5-5-------|
D|------0-5--5--5--5-6-5-3-1--1-1-6--6-5-3--3-3--1-1-1-3--5-5-5-5-5-------|


[Post Chorus]

Light/Heavy Distortion
e|-3---3--3---------------------------3---3--3----------------------------|
B|-4---4--4---------8--8-8------------4---4--4---------8--8-8-------------|
G|-5---5--5---------8--8-8------------5---5--5---------8--8-8-------------|
D|(5)-(5)(5)-5-5-1--8--8-8-----5-5-1-(5)-(5)(5)-5-5-1--8--8-8--5-5-1------|
A|(3)-(3)(3)-5-5-1--6--6-6-----5-5-1-(3)-(3)(3)-5-5-1--6--6-6--5-5-1------|
D|-----------5-5-1-------------5-5-1------------5-5-1----------5-5-1------|


[Verse Part 1]

Clean/Light Distortion
e|-3-----------------------3----------------------------------------------|
B|-4-----------7-----------4-----------8----------------------------------|
G|-5-----------8-----------5-----------8----------------------------------|
D|-5----5-5-1--8----5-5-1--5----5-5-1--8--5-5-1---------------------------|
A|-3----5-5-1--6----5-5-1--3----5-5-1--6--5-5-1---------------------------|
D|------5-5-1-------5-5-1-------5-5-1-----5-5-1---------------------------|


[Pre-chorus]

Light Distortion
e|------------------------------------------------------------------------|
B|------------------------------------------------------------------------|
G|--5-5-5-5---------------------------------------------4-4-4-4-4-4-4-4---|
D|--5-5-5-5--6-6-6-6--8-8-8-8--1-1-1-1--6-6-6-6-6-6-6-6-4-4-4-4-4-4-4-4---|
A|--3-3-3-3--6-6-6-6--8-8-8-8--1-1-1-1--6-6-6-6-6-6-6-6-2-2-2-2-2-2-2-2---|
D|-----------6-6-6-6--8-8-8-8--1-1-1-1--6-6-6-6-6-6-6-6-------------------|


[Chorus]

Heavy Distortion
e|------------------------------------------------------------------------|
B|------------------------------------------------------------------------|
G|-5--5-------------------------------------------------------------------|
D|-5--5-0-5--5--5--5-6-5-3-1--1-1-6--6-5-3--3-3--1-1-1-3--5-5-5-5-5-------| x2
A|-3--3-0-5--5--5--5-6-5-3-1--1-1-6--6-5-3--3-3--1-1-1-3--5-5-5-5-5-------|
D|------0-5--5--5--5-6-5-3-1--1-1-6--6-5-3--3-3--1-1-1-3--5-5-5-5-5-------|


[Solo]

Light Distortion
e|------------------------------------------------------------------------|
B|------------8~-------------8~------8h9-------8h9-------8------8-11\15\--|
G|-5h7h8-5-5^----7h8h10-7-7^---10--------8----------8------8-10-----------|
D|--------------------------------10-------10---------10------------------|
A|------------------------------------------------------------------------|
D|------------------------------------------------------------------------|

e|------------------------------------------------------------------------|
B|------------8~-------------8~------8h9-------8h9-------8------8-11\\\---|
G|-5h7h8-5-5^----7h8h10-7-7^---10--------8----------8------8-10-----------|
D|--------------------------------10-------10---------10------------------|
A|------------------------------------------------------------------------|
D|------------------------------------------------------------------------|


[Bridge]

Light Distortion
e|-4----------3-3-3-3-3--4----------------------3-3-3-3-3--4--------------|
B|-6-------4--4-4-4-4-4--6-------------4-4-3----4-4-4-4-4--6--------------|
G|-5-------5--5-5-5-5-5--5-------------5-----5--5-5-5-5-5--5--------------|
D|----5-5--5--5-5-5-5-5-----3-5-6-5-5--5--------5-5-5-5-5-----3-5-6-5-5---|
A|----5-5-----6-6-6-6-6-----------5-5-----------6-6-6-6-6-----------5-5---|
D|----5-5-------------------------5-5-------------------------------5-5---|

e|-----------3-3-3-3-3----------------------------------------------------|
B|--4-4-3----4-4-4-4-4----------------------------------------------------|
G|--5-----5--5-5-5-5-5-------------------4-4-4-4-4-4-4-4------------------|
D|--5--------5-5-5-5-5--5-5-5-5-5-5-5-5--5-5-5-5-5-5-5-5------------------|
A|-----------6-6-6-6-6--5-5-5-5-5-5-5-5--2-2-2-2-2-2-2-2------------------|
D|----------------------5-5-5-5-5-5-5-5-----------------------------------|


[Riff 1]

Light Distortion
e|------------------------------------------------------------------------|
B|-4-4-4-4-3-3-3-3-3-3-6-4-4-4-4-4-1-1-1-1---------1-1-1/3-0-0-0-0--------|
G|-5-0-5-0-4-0-4-0-4-0-0-0-3-0-3-0-1-0-1-0-5-5-5-5-x-x-x---0-0-0-0--------|
D|-----------------------------------------3-3-3-3-1-1-1/3-0-0-0-0--------| x2
A|------------------------------------------------------------------------|
D|------------------------------------------------------------------------|


[Chorus]

Heavy Distortion
e|------------------------------------------------------------------------|
B|------------------------------------------------------------------------|
G|-5--5-------------------------------------------------------------------|
D|-5--5-0-5--5--5--5-6-5-3-1--1-1-6--6-5-3--3-3--1-1-1-3--5-5-5-5-5-------| x4
A|-3--3-0-5--5--5--5-6-5-3-1--1-1-6--6-5-3--3-3--1-1-1-3--5-5-5-5-5-------|
D|------0-5--5--5--5-6-5-3-1--1-1-6--6-5-3--3-3--1-1-1-3--5-5-5-5-5-------|





Tablature Legend
****************************************

x - dead note
(n) - ghost note
h - hammer on
p - pull off
/ -  slide
\ -  slide
^ - brush up

****************************************

            
            
Suggest correction
Creating personal tab
Creating personal tab
You can edit any tab online and save it as your Personal.

You can edit, replace or remove any tab part or add personal notes – all changes will be seen only by you.

Personal tabs can be accessed anytime from any device, even offline.
Learn more »
comments
print report bad tab
73 comments total. Showing first comments.
+1 reply
jabber025 146 Jul 13, 2006 08:00 AM

the intro is it fingerpicked for that sound or is it something else he uses?
great tab though

+3 reply
george92 135 Jul 14, 2006 08:13 PM

Pretty good. Just in the verse, it goes Cm to D#, not D#m...

e|-------| |-------|
B|---8---| |---7---|
G|---8---| Instead |---8---|
D|---8---| of |---8---|
A|---6---| |---6---|
D|-------| |-------|

-2 reply
monachima505 187 Jul 17, 2006 06:23 PM

Great tab, just a few corrections for the intro/riff:

Instead of:
e|----------------------------------------------------------------------|
B|-4-4-4-4-3-3-3-3-3-6-4-4-4-4-4-4-4-4-4-1-1-1-1-1-1-1---0-0-0-0--------|
G|-5-0-5-0-4-0-4-0-4-0-0-3-0-3-0-1-0-1-1-x-x-x-x-x-x-x---0-0-0-0--------|
D|---------------------------------------3-3-3-3-1-1-1/3-0-0-0-0--------|
A|----------------------------------------------------------------------|
D|----------------------------------------------------------------------|

e|----------------------------------------------------------------------|
B|-4-4-4-4-3-3-3-3-3-6-4-4-4-4-4-1-1-1-1---------1-1-1/3-0-0-0-0--------|
G|-5-0-5-0-4-0-4-0-4-0-0-3-0-3-0-1-0-1-0-5-5-5-5-x-x-x---0-0-0-0--------|
D|---------------------------------------3-3-3-3-1-1-1/3-0-0-0-0--------|
A|----------------------------------------------------------------------|
D|----------------------------------------------------------------------|

guest
You may want to rate the tab now too:
select rating
Wanna post a correction for this tab? Suggest correction