Oops, an error
Loading. Please wait.

Fallen Leaves Bass Tab

version 2
version 2
4,207 views 15 this week
no commentswrite comment
1 2 3 4 5
please rate
add to favorites
launch autoscroll
font size
0
reset
guitar tuner
Autoscroll
slow
fast
+/-
esc
set tempo
stop
Help us to improve Ultimate-Guitar.com Take our survey!
×
Author
Tabbed By : Scott McKnight, transcribed by my old bass teacher by ear.
e-mail: skulllz_@hotmail.com

Tuning: Standard (EADG)

Very easy to figure out order ! :D

Intro (comes in after guitar intro along with drums)
G|--------------------------1-1-0-------------0------------------------------|
D|----------------------1-1-------3-3-1-0-1-3--------------------------------|
A|--3-3----------------------------------------------------------------------|
E|-------4-3-3--3-4-3-1------------------------------------------------------|

Verse 1
G|---------------------------------------------------------------------------|
D|---------------------------------------------------------------------------|
A|--------3~~~---------5~~~-------3~~~-------6~~~----------------------------|
E|--3-3-3--------3-3-3------3-3-3------3-3-3---------------------------------|

Bridge play twice, on second time play 7 after 0.
G|--1-1-0-------------0-(7)--------------------------------------------------|
D|--------3-3-1-0-1-3--------------------------------------------------------|
A|---------------------------------------------------------------------------|
E|---------------------------------------------------------------------------|

| /  slide up
| \  slide down
| h  hammer-on
| p  pull-off
| ~  vibrato
| +  harmonic
| x  Mute note
Suggest correction
Give kudos to tab author, rate the tab!
1 2 3 4 5
comments
print report bad tab
guest
You may want to rate the tab now too:
select rating
Please do not post tabs as comments. Select "correction" instead!