Oops, an error
Loading. Please wait.

Fallen Leaves Tab

version 2
version 2
14,255 views 6 this week
5 commentsread comments
1 2 3 4 5
worth learning
x 5
add to favorites
launch autoscroll
font size
0
reset
how to read this tab
guitar tuner
Tab Pro tools
  • play this tab
  • loop segment
  • change instrument
  • show fretboard
  • metronome
×
Best way to learn
"Fallen Leaves"
Autoscroll
slow
fast
+/-
esc
set tempo
stop
Difficulty
intermediate
Song: Fallen Leaves!
Band: Billy Talent
Tabs By: Phil
E-Mail: cyrusblood@hotmail.com
Age: 13

Contact if any info, k thx!

e|----------------------------------------------------------------------|
B|-4-4-4-4-3-3-3-3-3-6-4-4-4-4-4-1-1-1-1---------1-1-1/3-0-0-0-0--------|
G|-5-0-5-0-4-0-4-0-4-0-0-3-0-3-0-1-0-1-0-5-5-5-5-x-x-x---0-0-0-0--------|
D|---------------------------------------3-3-3-3-1-1-1/3-0-0-0-0--------|
A|----------------------------------------------------------------------|
D|----------------------------------------------------------------------|

=============================================================================

Intro Part 1
Light Distortion
e|----------------------------------------------------------------------|
B|-4-4-4-4-3-3-3-3-3-6-4-4-4-4-4-4-4-4-4-1-1-1-1-1-1-1---0-0-0-0--------|
G|-5-0-5-0-4-0-4-0-4-0-0-3-0-3-0-1-0-1-1-x-x-x-x-x-x-x---0-0-0-0--------|
D|---------------------------------------3-3-3-3-1-1-1/3-0-0-0-0--------| x2
A|----------------------------------------------------------------------|
D|----------------------------------------------------------------------|

Intro Part 2
Heavy Distortion
e|----------------------------------------------------------------------|
B|----------------------------------------------------------------------|
G|-5--5-----------------------------------------------------------------|
D|-5--5-0-5--5--5--5-6-5-3-1--1-1-6--6-5-3--3-3--1-1-1-3--5-5-5-5-5-----|
A|-3--3-0-5--5--5--5-6-5-3-1--1-1-6--6-5-3--3-3--1-1-1-3--5-5-5-5-5-----|
D|------0-5--5--5--5-6-5-3-1--1-1-6--6-5-3--3-3--1-1-1-3--5-5-5-5-5-----|

Verse Part 1
Clean/Light Distortion
e|-3-----------------------3--------------------------------------------|
B|-4-----------7-----------4-----------8--------------------------------|
G|-5-----------8-----------5-----------8--------------------------------|
D|-5----5-5-1--8----5-5-1--5----5-5-1--8--5-5-1-------------------------|
A|-3----5-5-1--6----5-5-1--3----5-5-1--6--5-5-1-------------------------|
D|------5-5-1-------5-5-1-------5-5-1-----5-5-1-------------------------|

Verse Part 2
Light Distortion
e|----------------------------------------------------------------------|
B|----------------------------------------------------------------------|
G|--5-5-5-5-------------------------------------------------------------|
D|--5-5-5-5--6-6-6-6--8-8-8-8--1-1-1-1--6-6-6-5-3-3-3-2-1-1-1-3-5-5-5-5-|
A|--3-3-3-3--6-6-6-6--8-8-8-8--1-1-1-1--6-6-6-5-3-3-3-2-1-1-1-3-5-5-5-5-|
D|-----------6-6-6-6--8-8-8-8--1-1-1-1--6-6-6-5-3-3-3-2-1-1-1-3-5-5-5-5-|

Pre-chorus
Light Distortion
e|----------------------------------------------------------------------|
B|----------------------------------------------------------------------|
G|--5-5-5-5---------------------------------------------4-4-4-4-4-4-4-4-|
D|--5-5-5-5--6-6-6-6--8-8-8-8--1-1-1-1--6-6-6-6-6-6-6-6-4-4-4-4-4-4-4-4-|
A|--3-3-3-3--6-6-6-6--8-8-8-8--1-1-1-1--6-6-6-6-6-6-6-6-2-2-2-2-2-2-2-2-|
D|-----------6-6-6-6--8-8-8-8--1-1-1-1--6-6-6-6-6-6-6-6-----------------|

Chorus
Heavy Distortion
e|----------------------------------------------------------------------|
B|----------------------------------------------------------------------|
G|-5--5-----------------------------------------------------------------|
D|-5--5-0-5--5--5--5-6-5-3-1--1-1-6--6-5-3--3-3--1-1-1-3--5-5-5-5-5-----| x2
A|-3--3-0-5--5--5--5-6-5-3-1--1-1-6--6-5-3--3-3--1-1-1-3--5-5-5-5-5-----|
D|------0-5--5--5--5-6-5-3-1--1-1-6--6-5-3--3-3--1-1-1-3--5-5-5-5-5-----|

Post Chorus
Light/Heavy Distortion
e|-3---3--3---------------------------3---3--3--------------------------|
B|-4---4--4---------8--8-8------------4---4--4---------8--8-8-----------|
G|-5---5--5---------8--8-8------------5---5--5---------8--8-8-----------|
D|(5)-(5)(5)-5-5-1--8--8-8-----5-5-1-(5)-(5)(5)-5-5-1--8--8-8--5-5-1----|
A|(3)-(3)(3)-5-5-1--6--6-6-----5-5-1-(3)-(3)(3)-5-5-1--6--6-6--5-5-1----|
D|-----------5-5-1-------------5-5-1------------5-5-1----------5-5-1----|

Verse Part 1
Clean/Light Distortion
e|-3-----------------------3--------------------------------------------|
B|-4-----------7-----------4-----------8--------------------------------|
G|-5-----------8-----------5-----------8--------------------------------|
D|-5----5-5-1--8----5-5-1--5----5-5-1--8--5-5-1-------------------------|
A|-3----5-5-1--6----5-5-1--3----5-5-1--6--5-5-1-------------------------|
D|------5-5-1-------5-5-1-------5-5-1-----5-5-1-------------------------|

Pre-chorus
Light Distortion
e|----------------------------------------------------------------------|
B|----------------------------------------------------------------------|
G|--5-5-5-5---------------------------------------------4-4-4-4-4-4-4-4-|
D|--5-5-5-5--6-6-6-6--8-8-8-8--1-1-1-1--6-6-6-6-6-6-6-6-4-4-4-4-4-4-4-4-|
A|--3-3-3-3--6-6-6-6--8-8-8-8--1-1-1-1--6-6-6-6-6-6-6-6-2-2-2-2-2-2-2-2-|
D|-----------6-6-6-6--8-8-8-8--1-1-1-1--6-6-6-6-6-6-6-6-----------------|

Chorus
Heavy Distortion
e|----------------------------------------------------------------------|
B|----------------------------------------------------------------------|
G|-5--5-----------------------------------------------------------------|
D|-5--5-0-5--5--5--5-6-5-3-1--1-1-6--6-5-3--3-3--1-1-1-3--5-5-5-5-5-----| x2
A|-3--3-0-5--5--5--5-6-5-3-1--1-1-6--6-5-3--3-3--1-1-1-3--5-5-5-5-5-----|
D|------0-5--5--5--5-6-5-3-1--1-1-6--6-5-3--3-3--1-1-1-3--5-5-5-5-5-----|

Solo
Light Distortion
e|----------------------------------------------------------------------|
B|------------8~-------------8~------8h9-------8h9-------8------8-11\15\|
G|-5h7h8-5-5^----7h8h10-7-7^---10--------8----------8------8-10---------|
D|--------------------------------10-------10---------10----------------|
A|----------------------------------------------------------------------|
D|----------------------------------------------------------------------|

e|----------------------------------------------------------------------|
B|------------8~-------------8~------8h9-------8h9-------8------8-11\\\-|
G|-5h7h8-5-5^----7h8h10-7-7^---10--------8----------8------8-10---------|
D|--------------------------------10-------10---------10----------------|
A|----------------------------------------------------------------------|
D|----------------------------------------------------------------------|

Bridge
Light Distortion
e|-4----------3-3-3-3-3--4----------------------3-3-3-3-3--4------------|
B|-6-------4--4-4-4-4-4--6-------------4-4-3----4-4-4-4-4--6------------|
G|-5-------5--5-5-5-5-5--5-------------5-----5--5-5-5-5-5--5------------|
D|----5-5--5--5-5-5-5-5-----3-5-6-5-5--5--------5-5-5-5-5-----3-5-6-5-5-|
A|----5-5-----6-6-6-6-6-----------5-5-----------6-6-6-6-6-----------5-5-|
D|----5-5-------------------------5-5-------------------------------5-5-|

e|-----------3-3-3-3-3--------------------------------------------------|
B|--4-4-3----4-4-4-4-4--------------------------------------------------|
G|--5-----5--5-5-5-5-5-------------------4-4-4-4-4-4-4-4----------------|
D|--5--------5-5-5-5-5--5-5-5-5-5-5-5-5--5-5-5-5-5-5-5-5----------------|
A|-----------6-6-6-6-6--5-5-5-5-5-5-5-5--2-2-2-2-2-2-2-2----------------|
D|----------------------5-5-5-5-5-5-5-5---------------------------------|

Riff 1
Light Distortion
e|----------------------------------------------------------------------|
B|-4-4-4-4-3-3-3-3-3-6-4-4-4-4-4-4-4-4-4-1-1-1-1-1-1-1---0-0-0-0--------|
G|-5-0-5-0-4-0-4-0-4-0-0-3-0-3-0-1-0-1-1-x-x-x-x-x-x-x---0-0-0-0--------|
D|---------------------------------------3-3-3-3-1-1-1/3-0-0-0-0--------| x2
A|----------------------------------------------------------------------|
D|----------------------------------------------------------------------|

Chorus
Heavy Distortion
e|----------------------------------------------------------------------|
B|----------------------------------------------------------------------|
G|-5--5-----------------------------------------------------------------|
D|-5--5-0-5--5--5--5-6-5-3-1--1-1-6--6-5-3--3-3--1-1-1-3--5-5-5-5-5-----| x4
A|-3--3-0-5--5--5--5-6-5-3-1--1-1-6--6-5-3--3-3--1-1-1-3--5-5-5-5-5-----|
D|------0-5--5--5--5-6-5-3-1--1-1-6--6-5-3--3-3--1-1-1-3--5-5-5-5-5-----|
comments
print report bad tab
5 comments total. Showing first comments.
0 reply
Guita_playa wrote on December 9 2006, 08:58 pm

uuuugggggggllllllliiiiiiieeeeeeeeeeee

0 reply
Guita_playa wrote on December 9 2006, 08:58 pm

hhhhhhooooooorrrrrrrrrrrrrrrriiiiiiiiibbbbbbbbbbblllllllllllllle

0 reply
Guita_playa wrote on December 9 2006, 08:58 pm

actually its not that bad

I want to post or [tab]
guest
You may want to rate the tab now too:
select rating
Please do not post tabs as comments. Select "correction" instead!