Oops, an error
Loading. Please wait.

Fallen Leaves Bass Tab

version 3
version 3
9,175 views 9 this week
2 commentsread comments
1 2 3 4 5
accurate
x 6
add to favorites
launch autoscroll
font size
0
reset
guitar tuner
Autoscroll
slow
fast
+/-
esc
set tempo
stop
Help us to improve Ultimate-Guitar.com Take our survey!
×
Author
Tuning
D A D G B E
Dropped D - DADG
Time Sig. - 4/4 
Tied note - _

4 bar guitar into then the bass comes in..

G|----------------|----------------|------------|------------|
D|----------------|----------------|------------|------------|
A|3-3-------------|----------------|3-----------|3-----------|
D|---05-5-56531-10|6-653-3011135550|---5501--550|---5501--550|

G|----------------|----------------|------------|------------|
D|----------------|----------------|------------|------------|
A|333-----111-----|----------------|3-----------|3-----------|
D|---06660---01110|6665333011135550|---5501--550|---5501--550|

G|----------------|----------------|
D|----------------|----------------|
A|333-----111-----|--------22222222|
D|---06660---01110|66666666--------|

G|----------------|----------------|
D|----------------|----------------|
A|3-3-------------|----------------|x2
D|---05-5-56531-10|6-653-3011135550|

G|----------------|----------------|------------|------------|
D|----------------|----------------|------------|------------|
A|3-33------------|3-33------------|3-----------|3-----------|
D|-----5501-11-550|-----5501-11-550|---5501--550|---5501--550|

G|----------------|----------------|
D|----------------|----------------|
A|333-----111-----|--------22222222|
D|---06660---01110|66666666--------|

G|----------------|----------------|
D|----------------|----------------|
A|3-3-------------|----------------|x2
D|---05-5-56531-10|6-653-3011135550|

G|----------------|----------------|----------------|
D|----------------|----------------|----------------|
A|3333------------|--------33331111|----------------|
D|----666655331111|33336666--------|3333555556531111|
              
G|----------------|----------------|----------------|
D|-------------133_3-----------1101|3-----------1101|
A|--------6-325---|--------3-------|--------3-------|
D|33336666-6------|----55----------|----55----------|

G|----------------|----------------|
D|------------1101|----------------|  4 bar rest
A|--------3333----|--------22222222| 
D|33335555--------|66666666--------|  
                                      
G|----------------|----------------|   |------|-------|
D|----------------|----------------|   |------|-------|
A|3-3-------------|----------------|x4 |3-----|-------|
D|---05-5-56531-10|6-653-3011135550|   |------|-------| 
                                       let ring.......
Suggest correction
What's this?
You can suggest a correction to this tab. Community and Mods will review your correction and vote to approve or reject it.
comments
print report bad tab
2 comments total.
0 reply
R17L29XI 35 wrote on November 8 2014, 06:46 pm

Is that 1-0 or 10 at the end of the first bar?

0 reply
Hikaru-Kun 52 wrote on November 27 2015, 11:41 am

that reply is too late, but i think its 1-0

guest
You may want to rate the tab now too:
select rating
Please do not post tabs as comments. Select "correction" instead!