Oops, an error
Loading. Please wait.

Fallen Leaves Chords

version 3
12,960 views 33 this week
no commentswrite comment
1 2 3 4 5
accurate
x 5
add to favorites
launch autoscroll
font size
0
reset
transpose
0
reset
simplify chords
display chords
guitar tuner
Tab Pro tools
  • play this tab
  • loop segment
  • change instrument
  • show fretboard
  • metronome
×
Best way to learn
"Fallen Leaves"
Autoscroll
slow
fast
+/-
esc
set tempo
stop
Contributor
Billy Talent
Fallen Leaves
Billy Talent II
2006 Atlantic Records
Submitted by: paramore_fans@yahoo.com

Key: Eb

Tuning: Standard EADGBe

Chords used:
Cm -  x35543
G -   320033
Eb -  x68886
G# -  466544
Fm -  133111
Bb -  x13331
G/B - x2x033


Intro:

Ian:
     Cm              G            Eb
e|---------|-----------------|---------|
B|-4-4-4-4-|-3-3-3-3-3-3-6-4-|-4-4-4-4-|
G|-5-0-5-0-|-4-0-4-0-4-0-0-0-|-3-0-3-0-|
D|---------|-----------------|---------|
A|---------|-----------------|---------|
E|---------|-----------------|---------|

      G#        Fm        Eb        G
e|---------|---------|---------|---------|
B|-1-1-1-1-|-1-1-1-1-|-1-1-1/3-|-0-0-0-0-|
G|-1-0-1-0-|-x-x-x-x-|-0-0-0/x-|-0-0-0-0-|
D|---------|-3-3-3-3-|-1-1-1/3-|-0-0-0-0-|
A|---------|---------|---------|---------|
E|---------|---------|---------|---------|


Chorus 1: While doing the Intro Riff
     Cm             G
In a crooked little town they
                    Eb
were lost and never found
       G#             Fm
Fallen leaves, fallen leaves
       Eb            G
fallen leaves on the ground


Breakdown: Cm--G--G-G#-G-Fm-Eb--G#--Fm--Eb--G--


Verse 1:
Cm                G
  I hitched a ride
Eb               G
  until the coast
Cm               G
  To leave behind
Eb               G
  all of my ghost
Cm              G#
  Searching for something
Bb           Eb      G#  Fm Eb G
  I couldn't find at home
Cm                G
  Can’t get no job
Eb                     G
  can you spare a dime?
Cm                 G
  Just one more hit
Eb                G
  and I’ll be fine
Cm           G#
  I swear to God this
Bb           Eb       G#  G/B
  will be my one last time


Chorus 2:
     Cm             G
In a crooked little town they
     G    G#  G Fm  Eb
were lost and never found
       G#             Fm
Fallen leaves, fallen leaves
       Eb            G
fallen leaves on the ground
     Cm             G
Run away before you drown or the
 G      G#   G    Fm  Eb
streets will beat you down
       G#             Fm
Fallen leaves, fallen leaves
       Eb            G
fallen leaves on the ground


Interlude: Cm--G-Eb--G-- x2


Verse 2:
Cm                 G
  When it gets dark
Eb              G
  in Pigeon Park
Cm                G
  Voice in my head
Eb                G
  will soon be fed
Cm       G#      Bb
  By the vultures  that
       Eb        G#  G/B
circle round the dead


(Repeat Chorus 2)


Guitar Solo:

Ian:
      Cm              G            Eb
e|----------|------------------|-------|
B|----------|-----8------------|-----8-|
G|-5-7-8--5-|-7-4----7-8-10--7-|-8-----|
D|----------|------------------|---8---|
A|----------|------------------|-------|
E|----------|------------------|-------|

      Fm          G#         Cm          Bb
e|-----------|----------|----------|-------8-10-|
B|-------8-9-|------8-9-|------8---|----11------|
G|-10--------|-8--------|-8------8-|-10---------|
D|----10-----|---10-----|---10-----|------------|
A|-----------|----------|----------|------------|
E|-----------|----------|----------|------------|

      Cm              G            Eb
e|----------|------------------|-------|
B|----------|-----8------------|-----8-|
G|-5-7-8--5-|-7-4----7-8-10--7-|-8-----|
D|----------|------------------|---8---|
A|----------|------------------|-------|
E|----------|------------------|-------|

      Fm          G#         Cm         Bb
e|-----------|----------|----------|---------|
B|-------8-9-|------8-9-|------8---|------11-|
G|-10--------|-8--------|-8------8-|-7-10----|
D|----10-----|---10-----|---10-----|---------|
A|-----------|----------|----------|---------|
E|-----------|----------|----------|---------|


Bridge:
Fm        G
  I never once thought
Cm         Eb
  I’d ever be caught
Fm           G
  Staring at sidewalks
Cm          Eb
  hiding my track marks
Fm          G
  I left my best friends
Cm            Eb         G G/B
  or did they just leave me?


Ian: at "staring at sidewalks" x2
      Fm     G      Cm     Eb
e|---------|---|---------|----|
B|---------|---|---4-3---|----|
G|-----0-1-|---|-5-----5-|-8--|
D|-3-3-----|-5-|-5-------|-8--|
A|-3-------|-5-|-3-------|-6--|
E|-1-------|-3-|---------|----|


(Repeat Intro)
(Repeat Chorus 1)
(Repeat Chorus 2)


Chorus 3:
     Cm             G    G-G#-G-Fm-Eb
Run away before you drown
       G#             Fm
Fallen leaves, fallen leaves
       Eb            G
fallen leaves on the ground
     Cm             G    G-G#-G-Fm-Eb
Run away before you drown
       G#             Fm
Fallen leaves, fallen leaves
       Eb            G     Cm(hold)
fallen leaves on the ground
comments
print report bad tab
I want to post or [tab]
guest
You may want to rate the tab now too:
select rating
Please do not post tabs as comments. Select "correction" instead!