Oops, an error
Loading. Please wait.

Fallen Leaves Tab

version 3
version 3
23,091 views 147 this week
4 commentsread comments
1 2 3 4 5
accurate
x 4
add to favorites
launch autoscroll
font size
0
reset
how to read this tab
guitar tuner
Autoscroll
slow
fast
+/-
esc
set tempo
stop
Help us to improve Ultimate-Guitar.com Take our survey!
×
Author
Difficulty
Tuning
novice
D A D G B E
                           Billy Talent: Fallen Leaves              By: Ryan


  I'm pretty sure this is how it is played. Please rate and leave suggestions in so I
it if it has problems.

---------------------------------------------------------------------------|
  Update: July 10th, 6:05pm, I updated pretty much everything on my entire |
tab It was pretty much all wrong.                                          |
---------------------------------------------------------------------------|

---------------------------------------------------------------------------|
  Update: July 20th, 9:59pm, just added up and down strokes for more       |
clearity.                                                                  |
---------------------------------------------------------------------------|


  Legend

  h = hammer on
  p = pull-off
  s = slide
  v = down stroke
  ^ = up stroke
  / = slide out


           Intro: Part One (make sure to play this intro by plucking at the strings 
of strumming them)

   e|----------------------------------------------------------------|
   B|4---4---4---4---3---3---3---3---3---3---6---4---4---4---4---4---|
   G|5---0---5---0---4---0---4---0---4---0---0---0---3---0---3---0---|
   D|----------------------------------------------------------------|
   A|----------------------------------------------------------------|
   D|----------------------------------------------------------------|
                                                                     \
                                                                      x2
                                                                     /
   e|----------------------------------------------------------------|
   B|1---1---1---1---1---1---1---1---1---1---1-/-3---0---0---0---0---|
   G|1---0---1---0---------------------------------------------------|
   D|----------------3---3---3---3---1---1---1-/-3---0---0---0---0---|
   A|----------------------------------------------------------------|
   D|----------------------------------------------------------------|


            Main Riff

     v       v   ^   v       v     ^ v   v   v   v   v       v   v
   e|----------------------------------------------------------------|
   B|4-------4---3---------------------------------------------------|
   G|5-------5---3---------------------------------------------------|
   D|5-------5---3---5-------5-----5-5---6---5---3---1-------1---0---|
   A|3-------3---3---5-------5-----5-5---6---5---3---1-------1---0---|
   D|----------------5-------5-----5-5---6---5---3---1-------1---0---|

     v       v   v   v       v   v   v   v   v   v   v   v   v   v
   e|----------------------------------------------------------------|
   B|----------------------------------------------------------------|
   G|----------------------------------------------------------------|
   D|6-------6---5---3-------3---0---1---1---1---3---5---5---5---0---|
   A|6-------6---5---3-------3---0---1---1---1---3---5---5---5---0---|
   D|6-------6---5---3-------3---0---1---1---1---3---5---5---5---0---|


            Verse #1

     v         v v v v         v v v v         v v v v         v v v
   e|----------------------------------------------------------------|
   B|4-------------------------------4-------------------------------|
   G|5---------------8---------------5---------------8---------------|
   D|5---------5-5-0-8---------5-5-0-5---------5-5-0-8---------5-5-0-|
   A|3---------5-5-0-6---------5-5-0-3---------5-5-0-6---------5-5-0-|
   D|----------5-5-0-----------5-5-0-----------5-5-0-----------5-5-0-|

     v   v   v  v  v   v   v   v   v   v   v   v   v   v   v   v
   e|----------------------------------------------------------------|
   B|4---4---4-----9---9---9-------11--11--11------------------------|
   G|5---5---5-----8---8---8-------10--10--10------8---8---8---------|
   D|5---5---5--0--6---6---6---0---8---8---8---0---8---8---8---0-----|
   A|3---3---3--0--6---6---6---0---8---8---8---0---6---6---6---0-----|
   D|-----------0--6---6---6---0---8---8---8---0---------------0-----|

     v v v v v v v v v v v v v v v v
   e|--------------------------------|
   B|--------------------------------|
   G|--------------------------------|
   D|6-6-6-5-3-3-3-0-1-1-1-3-5-5-5-0-|
   A|6-6-6-5-3-3-3-0-1-1-1-3-5-5-5-0-|
   D|6-6-6-5-3-3-3-0-1-1-1-3-5-5-5-0-|

     v         v v v v         v v v v         v v v v         v v v
   e|----------------------------------------------------------------|
   B|4-------------------------------4-------------------------------|
   G|5---------------8---------------5---------------8---------------|
   D|5---------5-5-0-8---------5-5-0-5---------5-5-0-8---------5-5-0-|
   A|3---------5-5-0-6---------5-5-0-3---------5-5-0-6---------5-5-0-|
   D|----------5-5-0-----------5-5-0-----------5-5-0-----------5-5-0-|

     v   v   v   v   v   v   v   v   v   v   v   v   v   v   v   v
   e|----------------------------------------------------------------|
   B|4---4---4-------9---9---9------11--11--11-----------------------|
   G|5---5---5-------8---8---8------10--10--10-------8---8---8-------|
   D|5---5---5---0---6---6---6---0---8---8---8---0---8---8---8---0---|
   A|3---3---3---0---6---6---6---0---8---8---8---0---6---6---6---0---|
   D|------------0---6---6---6---0---8---8---8---0---------------0---|

     v   v   v   v   v   v   v   v v  v  v  v  v   v  ^  v  ^  v  ^
   e|----------------------------------------------------------------|
   B|9---9---9---9---9---9---9---9----------------12-12-12-12-12-12--|
   G|8---8---8---8---8---8---8---8----------------12-12-12-12-12-12--|
   D|6---6---6---6---6---6---6---6--9--9--9--9--9--9--9--9--9--9--9--|
   A|6---6---6---6---6---6---6---6-10-10-10-10-10-10-10-10-10-10-10--|
   D|6---6---6---6---6---6---6---6--9--9--9--9--9--9--9--9--9--9--9--|


            Chorus #1

     v       v   v   v       v     ^ v   v   v   v   v       v   v
   e|----------------------------------------------------------------|
   B|4-------4-------------------------------------------------------|
   G|5-------5---3---------------------------------------------------|
   D|5-------5---3---5-------5-----5-5---5---3---0---1-------1---0---|
   A|3-------3---3---5-------5-----5-5---5---3---0---1-------1---0---|
   D|----------------5-------5-----5-5---5---3---0---1-------1---0---|
                                                                     \
                                                                      x2
     v       v   v   v       v   v   v   v   v   v   v   v   v   v   /
   e|----------------------------------------------------------------|
   B|----------------------------------------------------------------|
   G|----------------------------------------------------------------|
   D|6-------6---5---3-------3---0---1---1---1---3---5---5---5---0---|
   A|6-------6---5---3-------3---0---1---1---1---3---5---5---5---0---|
   D|6-------6---5---3-------3---0---1---1---1---3---5---5---5---0---|


             Pre-verse

     v   v v   v v v v   v v   v v v v   v v   v v v v   v v   v v v
   e|----------------------------------------------------------------|
   B|4---4-4-------------------------4---4-4-------------------------|
   G|5---5-5---------8---8-8---------5---5-5---------8---8-8---------|
   D|5---5-5---5-5-0-8---8-8---5-5-0-5---5-5---5-5-0-8---8-8---5-5-0-|
   A|3---3-3---5-5-0-6---6-6---5-5-0-3---3-3---5-5-0-6---6-6---5-5-0-|
   D|----------5-5-0-----------5-5-0-----------5-5-0-----------5-5-0-|


              Now you just repeat the verse again except this time, just once.


            Chorus

            Solo

         v       v       v   v           v       v       v   v
   e|----------------------------------------------------------------|
   B|------------------------8-------------------------------8-------|
   G|----5h7h8---5-s-7-------------------7h8h10--7-s-8---------------|
   D|--------------------8-------------------------------8-----------|
   A|----------------------------------------------------------------|
   D|----------------------------------------------------------------|

      v   v  v  v   v   v  v  v    v   v v    v    v  v
   e|----------------------------------------------------------------|
   B|--------8--9----------8--9----------8-----------11-s-13-s-15----|
   G|10-------------8--------------8----------8---10-----------------|
   D|----10------------10-------------10-----------------------------|
   A|----------------------------------------------------------------|
   D|----------------------------------------------------------------|


            Do first half the solo again, and then do this.

      v   v  v   v    v    v v   v   v     v  v   v   v   v  v
   e|----------------------------------------------------------------|
   B|--------8---9-----------8---9------------8-----------6----------|
   G|10---------------8--------------8------------8---7--------------|
   D|----10---------------10--------------10-----------------8/------|
   A|----------------------------------------------------------------|
   D|----------------------------------------------------------------|


            Bridge

     v    v v     v      v  v  v  v   v v       v v  v v   v v v v v
   e|----------------------------------------------------------------|
   B|-9-----------4------4--4--3--4---9--------------4-4p3---4-4-3-4-|
   G|10-----------5------5--5--5--5--10--------------5-----5-5-5-5-5-|
   D|10---5-5-----5------5--5--5--3--10---------5-5--5-------5-5-5-5-|
   A|-8---5-5-----3------3--3--3--3---8-8h10h11-5-5--3-------3-3-3-3-|
   D|-----5-5-----------------------------------5-5------------------|

      v v       v  v v v   v v v v v v v v v v v v v  v  v  v  v  v
   e|----------------------------------------------------------------|
   B|-9--------------4-4p3---4-4-3-4---------------------------------|
   G|10--------------5-----5-5-5-5-5---------------------------------|
   D|10---------5--5-5-------5-5-5-5-5-5-5-5-5-5-5-5--9--9--9--9--9--|
   A|-8-8h10h11-5--5-3-------3-3-3-3-5-5-5-5-5-5-5-5--9--9--9--9--9--|
   D|-----------5--5-----------------5-5-5-5-5-5-5-5--9--9--9--9--9--|

     v v v
   e|--------|
   B|------4-|
   G|------5-|
   D|9-9-9-5-|
   A|9-9-9-3-|
   D|9-9-9---|


            After you do that, do the intro again (x2).

            Chorus

     v       v   v   v       v     ^ v   v   v   v   v       v   v
   e|----------------------------------------------------------------|
   B|4-------4---3---------------------------------------------------|
   G|5-------5---3---------------------------------------------------|
   D|5-------5---3---5-------5-----5-5---5---3---0---1-------1---0---|
   A|3-------3---3---5-------5-----5-5---5---3---0---1-------1---0---|
   D|----------------5-------5-----5-5---5---3---0---1-------1---0---|
                                                                     \
                                                                      x2
     v       v   v   v       v   v   v   v   v   v   v   v   v   v   /
   e|----------------------------------------------------------------|
   B|----------------------------------------------------------------|
   G|----------------------------------------------------------------|
   D|6-------6---5---3-------3---0---1---1---1---3---5---5---5---0---|
   A|6-------6---5---3-------3---0---1---1---1---3---5---5---5---0---|
   D|6-------6---5---3-------3---0---1---1---1---3---5---5---5---0---|


     v       v   v   v       v     ^ v   v   v   v   v       v   v
   e|----------------------------------------------------------------|
   B|4-------4---3---------------------------------------------------|
   G|5-------5---3---------------------------------------------------|
   D|5-------5---3---5-------5-----5-5---6---5---3---1-------1---0---|
   A|3-------3---3---5-------5-----5-5---6---5---3---1-------1---0---|
   D|----------------5-------5-----5-5---6---5---3---1-------1---0---|
                                                                     \
                                                                      x2
     v       v   v   v       v   v   v   v   v   v   v   v   v   v   /
   e|----------------------------------------------------------------|
   B|----------------------------------------------------------------|
   G|----------------------------------------------------------------|
   D|6-------6---5---3-------3---0---1---1---1---3---5---5---5---0---|
   A|6-------6---5---3-------3---0---1---1---1---3---5---5---5---0---|
   D|6-------6---5---3-------3---0---1---1---1---3---5---5---5---0---|

     v
   e|--------------------------------|
   B|4-------------------------------|
   G|5-------------------------------|
   D|5-------------------------------|
   A|3-------------------------------|
   D|--------------------------------|


                            Rate and Comment

   Legend

  h = hammer on
  p = pull-off
  s = slide
  v = down stroke
  ^ = up stroke
  / = slide out
Suggest correction
comments
print report bad tab
4 comments total. Showing first comments.
0 reply
iAMP 10 wrote on June 10 2007, 03:22 pm

You're tab rocks! I can understand why you used letters for the solo
because since you were timing it right, you couldn't use double digit
numbers or it would be screwed up. You had a mistake in the solo though, but other than that, it was great!

0 reply
pic man 52 wrote on June 10 2007, 03:25 pm

Sorry, that was a typo. Thanx 4 the rating!

0 reply
pic man 52 wrote on June 16 2007, 06:58 pm

Sorry, everyone. Looking at my tab now, I found quite a few big mistakes with it. I don't think it deserves a 4* anymore

guest
You may want to rate the tab now too:
select rating
Please do not post tabs as comments. Select "correction" instead!