Oops, an error
Loading. Please wait.

Fallen Leaves Bass Tab

version 4
version 4
2,280 views 6 this week
no commentswrite comment
1 2 3 4 5
please rate
add to favorites
launch autoscroll
font size
0
reset
guitar tuner
Autoscroll
slow
fast
+/-
esc
set tempo
stop
Help us to improve Ultimate-Guitar.com Take our survey!
×
Author
Difficulty
Tuning
intermediate
D A D G B E
This is a special Tab mainly for a 5-string bass..... the original piece is done
in drop D I believe which is DADG. But since i have a 5 string i decided that
i am going to tune my B string to a D string and leave the rest the same so
the tuning it DEADG. I am going to try and make this as simple as possible
in order or sections....

http://www.youtube.com/watch?v=DNG2H3eY9pQ

-------------------------------------------------------------------------------
			     Fallen Leaves - Billy Talent
-------------------------------------------------------------------------------

Tabbed By : Ladies Bass
e-mail:mineme_2004@hotmail.com
*******************************************************************************

Guitar Intro: (No bass)

Intro/Chorus:
G|----------------------------------------------------|
D|----------------------------------------------------|
A|-3-3-1----------------------------------------------|
E|----------------------------------------------------|
D|-------5-5-5-5-6-5-3-1-1-6-6-5-3-3-3-1-1-1-3-5-5-5-5|

Verse:
(I) (2x)
G|---------------------|
D|----------1r---------|
A|-3r------------------|
E|----3-3------3-3-----|
D|--------1--------1---|

(II)
G|------------------------------------------------|
D|------------------------------------------------|
A|-333--------111---------------------------------|
E|------------------------------------------------|
D|------06660------01110-666-5-3330-111-3-555-----|

V(I)-2x

(III)
G|-----------------------------------------|
D|-----------------------------------------|
A|-333--------111----------------22222222--|
E|-----------------------------------------|
D|------06660------01110--66666666---------|

Chorus:2x

Break: 2x
G|-----------------------------|
D|--------------1-1-1----------|
A|-3-3-3-----------------------|
E|--------3-3---------3-3------|
D|------------1-----------1----|

V(I):   2x
V(III): 1x
Chorus: 2x

Bridge:2x                    Play 1st time through | Play 2nd time through
G|--------------------------------|  |------------|  |---------------|
D|--------------------------------|  |------------|  |---------------|
A|-3333---------------------------|  |-3333-1111--|  |-3---3-2-1---1-|
E|--------------------------------|  |------------|  |---------------|
D|------555555-3-0-1111-3333-6666-|  |------------|  |---5-------3---|

Post-Bridge:
G|-----------------------------------------------------------------|
D|-----------------------------------------------------------------|
A|-------3-6656-------3-6656----------3333-6666--------------------|
E|-----------------------------------------------------------------|
D|-3-55----------3-55--------3333-5555----------55555555-99999999\-|

(Guitar solo, no Bass)

Chorus:4x

Ending:
G|------|
D|------|
A|--3r--|
E|------|
D|------|

| r  let ring
| /  slide up
| \  slide down
| h  hammer-on
| p  pull-off
| ~  vibrato
| +  harmonic
| x  Mute note
Suggest correction
Give kudos to tab author, rate the tab!
1 2 3 4 5
comments
print report bad tab
guest
You may want to rate the tab now too:
select rating
Please do not post tabs as comments. Select "correction" instead!